PrimaNota.ru - самый крупный в мире бесплатный архив песенных текстов, аккордов, табулатур и нот


Killwhitneydead - Duct Tape Death Threats - бас-таба, видео

Регистрация Запомнить меня
Войти через:  Facebook Google Twitter Vk Yandex Mail.ru

Killwhitneydead - Duct Tape Death Threats - бас-таба, видео

Печатать
Просмотров: 115
Artist - KillWhitneyDead
Song - Duct Tape & Death Threats
Tabber - Satan Man
Tabbers Email - morbid_damnation666@hotmail.com
Tuning - C#G#C#F#

|---------------------------------------------------------------|
|-------------------5p3p0-5p3p0---------------------5p3p0-5p3p0-|
|-0-0-0-0-0-0-0-0-0-------------0-0-0-0-0-0-0-0-0-0-------------| x4
|---------------------------------------------------------------|

|--------------------|
|--------------------|
|--------------------|
|-000--000--000--000-|

|---------------------------------------------------------------|
|-------------------5p3p0-5p3p0---------------------5p3p0-5p3p0-|
|-0-0-0-0-0-0-0-0-0-------------0-0-0-0-0-0-0-0-0-0-------------| x4
|---------------------------------------------------------------|

|--------------------|
|--------------------|
|--------------------|
|-000--000--000--000-|

|---------------------------------------------|
|---------------------------------------------|
|---------------------------------------------|
|-000--000--000--000--000--000--000--000--000-|
Добавлено: 17.03.2012
Другие материалы по этой песне:
  • Аккорды и текст

Страница создана 17.03.2012
http://primanota.ru/killwhitneydead/duct-tape-death-threats-chords.htm
Привет, Гость.
Предлагаем пройти революционный курс по гитаре.
Подарок от PrimaNota.Ru, забирай!