PrimaNota.ru - самый крупный в мире бесплатный архив песенных текстов, аккордов, табулатур и нот


Killswitch Engage - Reckoning - текст песни, таба, видео

Регистрация Запомнить меня
Войти через:  Facebook Google Twitter Vk Yandex Mail.ru

Killswitch Engage - Reckoning - текст песни, таба, видео

Печатать
Просмотров: 150
-------------------------------------------------------------------------------
                             Reckoning - Killswitch Engage
-------------------------------------------------------------------------------
Tabbed by: Chris Tranmer (face_the_fear)
Email: sk8anis2002@hotmail.com

!!There are a few guitar harmonies in this song but I have only tabbed out the parts I 
along to!!

Tuning: Drop C

Intro Riff 1 x2

D|---------------------------------------------------------------------------|
A|---------------------------------------------------------------------------|
F|---------------------------------------------------------------------------|
C|---------------------------------------------------------------------------|
G|-5-5-5-5-5-5-5-5-5-5-5-5-7-7-7-7-7-7-7-7-7-7-7-7-8-8-8-8-8-8-8-8-8-8-8-8---|
C|---------------------------------------------------------------------------|

D|---------------------------------------------------------------------------|
A|---------------------------------------------------------------------------|
F|---------------------------------------------------------------------------|
C|-10-10-10-10-10-10-10-10-10-10-10-10-8-10-10-10-10-10-10-10-10-10-10-10----|
G|---------------------------------------------------------------------------|
C|---------------------------------------------------------------------------|

D|---------------------------------------------------------------------------|
A|---------------------------------------------------------------------------|
F|---------------------------------------------------------------------------|
C|8-8-8-8-7-7-7-7------------------------------------------------------------|
G|----------------8-8-8-8-8-8-8-8-8-8-8-8-7-7-7-7-7-7-7-7-7-7-7-7------------|
C|---------------------------------------------------------------------------|

Intro Riff 2 x2

D|----------------------------------------------------------------------------|
A|----------------------------------------------------------------------------|
F|------------------------------------------------7-7-7-7-7-7-7-7-7-7-7-7-6---|
C|0-----------2-----------3-----------7---------------------------------------|
G|0-0-0-0-0-0-2-2-2-2-2-2-3-3-3-3-3-3-7-7-7-7-7-7-5-5-5-5-5-5-5-5-5-5-5-5-4---|
C|0-0-0-0-0-0-2-2-2-2-2-2-3-3-3-3-3-3-7-7-7-7-7-7-----------------------------|
   PM--------  PM--------  PM--------  PM-------------------------------------|

D|---------------------------------------------------------------------------|
A|---------------------------------------------------------------------------|
F|6-6-6-6-6------------------------------------------------------------------|
C|----------7-7-7-7-7-7------------------------------------------------------|
G|4-4-4-4-4------------------------------------------------------------------|
C|----------7-7-7-7-7-7------------------------------------------------------|


Verse Riff x2

D|----------------------------------------------------------------------------|
A|----------------------------------------------------------------------------|
F|----------------------------------------------------------------------------|
C|------7-----------7-----------5-----------5-----------10---------10---------|
G|------5-----------5-----------3-----------3-----------8----------10---------|
C|0-0-0-------0-0-0-------3-3-3-3-----3-3-3-3-----8-8-8-8----8-8-8-8----------|
 PM----       PM----      PM----      PM----      PM----     PM---------------|

D|----------------------------------------------------------------------------|
A|----------------------------------------------------------------------------|
F|----------------------------------------------------------------------------|
C|------10----------10--------------------------------------------------------|
G|------7-----------7---------------------------------------------------------|
C|0-0-0-------0-0-0-----------------------------------------------------------|
 PM----       PM--------------------------------------------------------------|


Chorus Riff x2

D|------------------------------------------------------------------------------|
A|------------------------------------------------------------------------------|
F|------------------------------------------------------------------------------|
C|7-0-5/7-0-7-10-0-7-0-5-0-7-0-5/7-0-7-12-7-/10~~--8--7-------------------------|
G|------------------------------------------------------8~~7~~------------------|
C|------------------------------------------------------------------------------|


Intro Riff 1 x2

D|---------------------------------------------------------------------------|
A|---------------------------------------------------------------------------|
F|---------------------------------------------------------------------------|
C|---------------------------------------------------------------------------|
G|-5-5-5-5-5-5-5-5-5-5-5-5-7-7-7-7-7-7-7-7-7-7-7-7-8-8-8-8-8-8-8-8-8-8-8-8---|
C|---------------------------------------------------------------------------|

D|---------------------------------------------------------------------------|
A|---------------------------------------------------------------------------|
F|---------------------------------------------------------------------------|
C|-10-10-10-10-10-10-10-10-10-10-10-10-8-10-10-10-10-10-10-10-10-10-10-10----|
G|---------------------------------------------------------------------------|
C|---------------------------------------------------------------------------|

D|---------------------------------------------------------------------------|
A|---------------------------------------------------------------------------|
F|---------------------------------------------------------------------------|
C|8-8-8-8-7-7-7-7------------------------------------------------------------|
G|----------------8-8-8-8-8-8-8-8-8-8-8-8-7-7-7-7-7-7-7-7-7-7-7-7------------|
C|---------------------------------------------------------------------------|


Verse Riff x2

D|----------------------------------------------------------------------------|
A|----------------------------------------------------------------------------|
F|----------------------------------------------------------------------------|
C|------7-----------7-----------5-----------5-----------10---------10---------|
G|------5-----------5-----------3-----------3-----------8----------10---------|
C|0-0-0-------0-0-0-------3-3-3-3-----3-3-3-3-----8-8-8-8----8-8-8-8----------|
 PM----       PM----      PM----      PM----      PM----     PM---------------|

D|----------------------------------------------------------------------------|
A|----------------------------------------------------------------------------|
F|----------------------------------------------------------------------------|
C|------10----------10--------------------------------------------------------|
G|------7-----------7---------------------------------------------------------|
C|0-0-0-------0-0-0-----------------------------------------------------------|
 PM----       PM--------------------------------------------------------------|


Chorus Riff x4

D|---------------------------------------------------------------------------|
A|---------------------------------------------------------------------------|
F|---------------------------------------------------------------------------|
C|7-0-5/7-0-7-10-0-7-0-5-0-7-0-5/7-0-7-12-7-/10~~--8--7----------------------|
G|------------------------------------------------------8~~7~~---------------|
C|---------------------------------------------------------------------------|


Bridge Riff x3

D|----------------------------------------------------------------------------|
A|----------------------------------------------------------------------------|
F|----------------------------------------------------------------------------|
C|-7p0-7p0------7p0-7p0-----8p0-8p0-------7p0-7p0-----10p0-10p0-----7p0-7p0---|
G|----------------------------------------------------------------------------|
C|---------7-7----------8-8---------10-10---------0-0-----------0-0-----------|
          PM--         PM--        PM---         PM--           PM------------|

D|---------------------------------------------------------------------------|
A|---------------------------------------------------------------------------|
F|---------------------------------------------------------------------------|
C|-----10p0-10p0-------------------------------------------------------------|
G|---------------------------------------------------------------------------|
C|-7-7-----------------------------------------------------------------------|
  PM--


Bridge Riff End

D|----------------------------------------------------------------------------|
A|----------------------------------------------------------------------------|
F|----------------------------------------------------------------------------|
C|-7p0-7p0------7p0-7p0-----8p0-8p0-------------------------------------------|
G|-----------------------------------------5p0-5p0-----5p0-5p0-------5p0-5p0--|
C|---------7-7----------8-8---------10-10---------0-0-----------0-0-----------|
          PM--         PM--        PM---         PM--           PM------------|

D|---------------------------------------------------------------------------|
A|---------------------------------------------------------------------------|
F|---------------------------------------------------------------------------|
C|---------------------------------------------------------------------------|
G|------5p0-5p0--------------------------------------------------------------|
C|-0-0-----------------------------------------------------------------------|
  PM--

Chorus Riff x4

D|---------------------------------------------------------------------------|
A|---------------------------------------------------------------------------|
F|---------------------------------------------------------------------------|
C|7-0-5/7-0-7-10-0-7-0-5-0-7-0-5/7-0-7-12-7-/10~~--8--7----------------------|
G|------------------------------------------------------8~~7~~---------------|
C|---------------------------------------------------------------------------|


Outro

D|---------------------------------------------------------------------------|
A|---------------------------------------------------------------------------|
F|---------------------------------------------------------------------------|
C|7-0-5/7-0-7-10-0-7-0-5-0-7-0-5/7-0-7-12-7-5p0------------------------------|
G|---------------------------------------------------------------------------|
C|---------------------------------------------------------------------------|

Feel free to add the harmonies into comments and I will update the tab with them.

| /  slide up
| \  slide down
| h  hammer-on
| p  pull-off
| ~  vibrato
| +  harmonic
| x  Mute note
===============================================================================
Добавлено: 08.04.2012
Другие материалы по этой песне:

Страница создана 23.02.2012
http://primanota.ru/killswitch-engage/reckoning-chords.htm
Привет, Гость.
Предлагаем пройти революционный курс по гитаре.
Подарок от PrimaNota.Ru, забирай!