PrimaNota.ru - самый крупный в мире бесплатный архив песенных текстов, аккордов, табулатур и нот


Killing Joke - Youll Never Get To Me - текст песни, таба, видео

Регистрация Запомнить меня
Войти через:  Facebook Google Twitter Vk Yandex Mail.ru

Killing Joke - Youll Never Get To Me - текст песни, таба, видео

Печатать
Просмотров: 165
From:  Eka Suma
Date:  14 Sep 2004

Song:  You'll Never Get To Me
Band:  Killing Joke
Album: Killing Joke (2003)
Guitarist: Geordie Walker
Transcribed by Eka Suma (kresnan@yahoo.com)

tuning:  lower E to D

4/4 time

Intro and main riff

A                  A      E           F#m7

  1   2   3   4
e----------------|----------------|----------------|----------------|
b-2---2---2------|----------------|----------------|----------------|
g-2---2---2----2-|-2--2-2---------|---2-2-2-2--2--2|---2-2-2-2--2--2|
d-2---2---2----2-|-2--2-2-9-9-9-9-|-9-2-2-2-2--2--2|---2-2-2-2--2--2|
a-0---0---0----0-|-0--0-0-7-7-7-7-|-7-4-4-4-4--4--4|---4-4-4-4--4--4|
D----------------|--------6-6-6-6-|-6-4-4-4-4--4--4|---4-4-4-4--4--4|

                       E              D
                                                         repeat twice
e----------------|----------------|------(2)-------|----------------||
b----------------|----------------|---3-3-3-3---3-3|---3-3--3--3-3-3||
g-2---2-2-2--2-2-|--2--1-1--1---1-|-1-2-2-2-2---2-2|---2-2--2--2-2-2||
d-2---2-2-2--2-2-|--2--2-2--2---2-|-2-0-0-0-0---0-0|---0-0--0--0-0-0||
a-4---4-4-4--4-4-|--4--2-2--2---2-|-2-0-0-0-0---0-0|---0------------||
D-4---4-4-4--4-4-|--4--2-2--2---2-|-2-0-0----------|----------------||

to bass arpeggios


A                  A      E          F#m7

  1   2   3   4
e----------------|----------------|----------------|----------------|
b-2---2---2------|----------------|----------------|----------------|
g-2---2---2----2-|-2--2-2---------|---2-2-2-2--2--2|---2-2-2-2--2--2|
d-2---2---2----2-|-2--2-2-9-9-9-9-|-9-2-2-2-2--2--2|---2-2-2-2--2--2|
a-0---0---0----0-|-0--0-0-7-7-7-7-|-7-4-4-4-4--4--4|---4-4-4-4--4--4|
D----------------|--------6-6-6-6-|-6-4-4-4-4--4--4|---4-4-4-4--4--4|

                       E              D
						   repeat three times
e----------------|----------------|------(2)-------|----------------||
b----------------|----------------|---3-3-3-3---3-3|---3-3--3--3-3-3||
g-2---2-2-2--2-2-|--2--1-1--1---1-|-1-2-2-2-2---2-2|---2-2--2--2-2-2||
d-2---2-2-2--2-2-|--2--2-2--2---2-|-2-0-0-0-0---0-0|---0-0--0--0-0-0||
a-4---4-4-4--4-4-|--4--2-2--2---2-|-2-0-0-0-0---0-0|---0------------||
D-4---4-4-4--4-4-|--4--2-2--2---2-|-2-0-0-0-0---0-0|----------------||


F#m7		       E            D

e----------------|----------------|-------(2)------|----------------|
b----------------|----------------|-3---3-3-3---3-3|---3-3--3--3-3-3|
g-2---2-2-2--2-2-|--2-------------|-2---2-2-2---2-2|---2-2--2--2-2-2|
d-2---2-2-2--2-2-|--2--9-9--9-9-9-|-0---0-0-0---0-0|---0-0--0--0-0-0|
a-4---4-4-4--4-4-|--4--7-7--7-7-7-|-0---0-0-0---0-0|---0------------|
D-4---4-4-4--4-4-|--4--6-6--6-6-6-|-0---0-0-0------|----------------|


F#m7		       E	        D / Dma7

e----------------|----------------|----------------|----------------|
b----------------|----------------|------(2)---(2)-|----------------|
g-2---2-2-2--2-2-|--2-------------|-----2-2-2---2-2|---2-2--2--2-2-2|
d-2---2-2-2--2-2-|--2--9-9--9-9-9-|-----0-0-0---0-0|---0-0--0--0-0-0|
a-4---4-4-4--4-4-|--4--7-7--7-7-7-|-----4-4-4---4-4|---4-4--4--4-4-4|
D-4---4-4-4--4-4-|--4--6-6--6-6-6-|-0---0-0-0---0-0|---0-0--0--0-0-0|

 -> back to main riff
Добавлено: 13.03.2012
Другие материалы по этой песне:
  • Аккорды и текст

Страница создана 13.03.2012
http://primanota.ru/killing-joke/youll-never-get-to-me-chords.htm
Привет, Гость.
Предлагаем пройти революционный курс по гитаре.
Подарок от PrimaNota.Ru, забирай!