PrimaNota.ru - самый крупный в мире бесплатный архив песенных текстов, аккордов, табулатур и нот


Killing Joke - This World Hell - таба, видео

Регистрация Запомнить меня
Войти через:  Facebook Google Twitter Vk Yandex Mail.ru

Killing Joke - This World Hell - таба, видео

Печатать
Просмотров: 143
Main Riff
---pm----------|
---------------|
---------------|
---2-----------|
---2-----------|
---0-----------|
just compare this powerchord with song
Chours
-------------------------------------|
-------------------------------------|
---5---7----10-----------------------|
---5---5----10-----------------------|
---3---3----8------------------------|
-------------------------------------|
just compare this powerchords with song
Riff 2
----------------------------|
----------------------------|
----------------------------|
----------------------------|
----------------------------|
--0-3-5-0-5-7-07-9--0-10-12-|
End Chords
after last chours
--------------------------|
--------------------------|
--5-----7-----------------|
--5-----7-----7-----------|
--3-----5-----7-----------|
--------------5-----------|
just compare this powerchord with song
This is my first tab. Enjoy & rate
Добавлено: 07.03.2012
Другие материалы по этой песне:
  • Аккорды и текст

Страница создана 07.03.2012
http://primanota.ru/killing-joke/this-world-hell-chords.htm
Привет, Гость.
Предлагаем пройти революционный курс по гитаре.
Подарок от PrimaNota.Ru, забирай!