PrimaNota.ru - самый крупный в мире бесплатный архив песенных текстов, аккордов, табулатур и нот


Killing Joke - Song Dance - таба, видео

Регистрация Запомнить меня
Войти через:  Facebook Google Twitter Vk Yandex Mail.ru

Killing Joke - Song Dance - таба, видео

Печатать
Просмотров: 113
KILLING JOKE : Song and Dance. Album : Fire Dances (1983).

INTRO. Let ring…

D-10-----10--10--11-----12---------|
A---10---10--10----10^12--12-------|
F-----11-11--11-------------13^11--|
C-------------0--------------------|
G----------------------------------|
D----------------------------------|

RIFF 1 / VERSES.  Let ring…

D-4--4---4--4---4----4---4--2-2-2--|
A-0--0---0--0---0----0---0--2-2-2--|
F-4—-3^4-4—-3^4-4----3^4-4--3-3-3--|
C----------------------------------|
G----------------------------------|
D----------------------------------|

As played (1 X) in last verse. Let ring…

D-16--16----16--16----16--16----16--14-14-14--|
A--0---0-----0---0-----0---0-----0--14-14-14--|
F-16—-15^16-16—-15^16-16—-15^16-16--15-15-15--|
C---------------------------------------------|
G---------------------------------------------|
D---------------------------------------------|

RIFF 2 / CHORUS.  Let ring...

D-10--10--10--11------12--12---|
A-10--10--10----10^12-12--12---|
F-11--11--11----------13--13---|
C----0--0--0-------------------|
G------------------------------|
D------------------------------|

RIFF 3 / CHORUS. Let ring…

D-11-----11-----11-----11------9---9--|
A------0------0------0------0--9---9--|
F-------------------------------------|
C----9------9------9------9-----------|
G-------------------------------------|
D-------------------------------------|

RIFF 4 / BREAK. ^ = slide

D-----------------------------------|
A-----------------------------------|
F-----8-----8-----8----8---8---8----|
C--------------------6---6---6---6--|
G-5^6---5^6---5^6-------------------|
D-----------------------------------|
Добавлено: 14.07.2012
Другие материалы по этой песне:
  • Аккорды и текст

Страница создана 14.07.2012
http://primanota.ru/killing-joke/song-dance-chords.htm
Привет, Гость.
Предлагаем пройти революционный курс по гитаре.
Подарок от PrimaNota.Ru, забирай!