PrimaNota.ru - самый крупный в мире бесплатный архив песенных текстов, аккордов, табулатур и нот


Killing Joke - Pssyche - текст песни, таба, видео

Регистрация Запомнить меня
Войти через:  Facebook Google Twitter Vk Yandex Mail.ru

Killing Joke - Pssyche - текст песни, таба, видео

Печатать
Просмотров: 188
PSSYCHE As played in N.W.O.B.F.G./Love Like Blood
Updated : Feb. 09 2006

In this track Geordie alterns different riffs with the same chords, you have to listen 
the song to feel when he changes.
Most of the time, the C-string is palm-muted but sometimes he let it rings...let your 
do the job!

RIFF 1 C-string=palm-muted, cut the chords with the fretting hand, except chords with a '.

D----------------------------|
A-3----3----3'--3----3----3'-|
F-2----2----2'--3----3----3'-|
C----0----0--------0----0----|
G----------------------------|
D----------------------------|

RIFF 2  C-string=palm-muted, F-string=slightly palm-muted.

D----------------------------------|
A----------------------------------|
F-2-----2-----2---3-----3-----3----|
C---0-0---0-0---0---0-0---0-0---0--|
G----------------------------------|
D----------------------------------|

As played sometimes. C string = palm-muted
D----------------------------------|
A-1-----1-----1---1-----1-----1----|
F-2-----2-----2---3-----3-----3----|
C---0-0---0-0---0---0-0---0-0---0--|
G----------------------------------|
D----------------------------------|


RIFF 3 C-string=palm-muted, play the chords as in RIFF 1 (').

D-3----3----3'--3----3-----3'-|
A-3----3----3'--3----3-----3'-|
F-2----2----2'--3----3-----3'-|
C----0----0--------0-----0----|
G-----------------------------|
D-----------------------------|

RIFF 4. C string = palm-muted, F-7 = slightly palm-muted

D---------------------------------|
A---------------------------------|
F-----7-7-----7-7-----7-7-----7-7-|
C-0-0-----0-0-----0-0-----0-0-----|
G---------------------------------|
D---------------------------------|


RIFF 5/ END RIFF  C-string =palm-muted, cut the chords by pressing with the fretting 
let ring the last chord.

D------3------3------3------3---------3----|
A------3------3------3------3-------3------|
F------2------2------3------3-----2--------|
C--0-0----0-0----0-0----0-0----0-----------|
G------------------------------------------|
D------------------------------------------|
Добавлено: 11.03.2012
Другие материалы по этой песне:
  • Аккорды и текст

Страница создана 11.03.2012
http://primanota.ru/killing-joke/pssyche-chords.htm
Привет, Гость.
Предлагаем пройти революционный курс по гитаре.
Подарок от PrimaNota.Ru, забирай!