PrimaNota.ru - самый крупный в мире бесплатный архив песенных текстов, аккордов, табулатур и нот


Killing Joke - I Am The Virus - бас-таба, видео

Регистрация Запомнить меня
Войти через:  Facebook Google Twitter Vk Yandex Mail.ru

Killing Joke - I Am The Virus - бас-таба, видео

Печатать
Просмотров: 56
-------------------------------------------------------------------------------
                             I Am the Virus - Killing Joke
-------------------------------------------------------------------------------
Tabbed by: Trey V.
E-mail: wswakefan@triad.rr.com

Most recent single from Killing Joke off of their upcoming album 'Pylon.'
While Killing Joke's go to tuning is D Standard, you can get away with drop D 
on this song. Overall, the song is pretty straightforward; I like to include 
octaves throughout just to help make the song sound more full.

Tuning: Drop D

Intro
G|---------------------------------------------------------------------------|
D|---------------------------------------------------------------------------|
A|---------------------------------------------------------------------------|
D|-0-0----0-0----0-0----0-0----12\-------------------------------------------|

G|---------------------------------------------------------------------------|
D|---------------------------------------------------------------------------|
A|(5)------(5)------(5)------(5)---------------------------------------------|x4
D|-0-0-000--0-0-000--0-0-000--0-0-000----------------------------------------|

Verse/Chorus
G|---------------------------------------------------------------------------|
D|---------------------------------------------------------------------------|
A|---------------------------------------------------------------------------|
D|-0-0-000-0-0-000-8-8-8-6-6-666---------------------------------------------|
 
Bridge (2:53-3:03)(4:36-4:47)
G|---------------------------------------------------------------------------|
D|---------------------------------------------------------------------------|
A|---------------------------------------------------------------------------|
D|-0-0----0-0----0-0----0-0----12\-------------------------------------------|


| /  slide up
| \  slide down
| h  hammer-on
| p  pull-off
| ~  vibrato
| +  harmonic
| x  Mute note
===============================================================================
Добавлено: 15.03.2016
Другие материалы по этой песне:
  • Аккорды и текст

Страница создана 14.03.2016
http://primanota.ru/killing-joke/i-am-virus-chords.htm
Привет, Гость.
Предлагаем пройти революционный курс по гитаре.
Подарок от PrimaNota.Ru, забирай!