PrimaNota.ru - самый крупный в мире бесплатный архив песенных текстов, аккордов, табулатур и нот


Killing Joke - Europe - текст песни, таба, видео

Регистрация Запомнить меня
Войти через:  Facebook Google Twitter Vk Yandex Mail.ru

Killing Joke - Europe - текст песни, таба, видео

Печатать
Просмотров: 175
ALL THES NEW KILLING JOKE TABS ARE POSTED BY ANTHONY-TABAZAN@NETCOURRIER.COM

EUROPE. Album: Night Time (1985)
Updated : Feb. 06 2006

RIFF 1/VERSES Cut all the notes/chords by pressing with the fretting hand.

D--3--------------3--------------3--------------3-------------|
A--1--------------1--------------1--------------1-------------|
F--0--------------0--------------0--------------0-------------|
C-------------------------------------------------------------|
G-------------------------------------------------------------|
D-----0-0--0-0-0-----0-0--0-0-0-----3-3--3-3-3-----3-3--3-3-3-|

As played before chorus Let ring the 'chord' and the last 5 chords.

D--3--------------3--------------3'-----------3-3-3--3--3-|
A--1--------------1--------------1'-----------1-1-1--1--1-|
F--0--------------0--------------0'-----------0-0-0--0--0-|
C---------------------------------------------------------|
G---------------------------------------------------------|
D-----0-0--0-0-0-----0-0--0-0-0-----3-3--3-3--------------|


CHORUS Let ring. ( )=played sometimes

D----------0-----------0-----------0----------(0)--------------0-|
A-----4-----------7----------3--------3-(3)-----(3)-------7------|
F--4----4------4----4-----0-----0-----------(0)---(0)--4----4----|
C----------------------------------------------------------------|
G----------------------------------------------------------------|
D----------------------------------------------------------------|


BREAK part 1 Let ring except C-2 string palm-muted ( ) =played sometimes

D-------------0------------------------------------|
A---------0----------------------------------------|
F-(3)-3--------------------------------------------|
C----------------2-2-2--2-2-2--2-2-2--2-2-2--2-2-2-|
G--------------------------------------------------|
D--------------------------------------------------|

BREAK part 2  Let ring

D--------------------------------------------------------|
A--------------------------------------------------------|
F-----7----7----0--4----4----0--5----5----0--2----2----0-|
C--------------------------------------------------------|
G--5----5----5--6----6----6--3----3----3--4----4----4----|
D--------------------------------------------------------|

VERSES as played at the end of the song

D--3--3------------3--3------------3-3-3------------3-3-3------------3-3-3-|
A--1--1------------1--1------------1-1-1------------1-1-1------------1-1-1-|
F--0--0------------0--0------------0-0-0------------0-0-0------------0-0-0-|
C--------------------------------------------------------------------------|
G--------------------------------------------------------------------------|
D--------0-0--0-0--------0-0--0-0---------3-3--3-3---------3-3--3-3--------|
Добавлено: 03.05.2012
Другие материалы по этой песне:
  • Аккорды и текст

Страница создана 03.05.2012
http://primanota.ru/killing-joke/europe-chords.htm
Привет, Гость.
Предлагаем пройти революционный курс по гитаре.
Подарок от PrimaNota.Ru, забирай!