PrimaNota.ru - самый крупный в мире бесплатный архив песенных текстов, аккордов, табулатур и нот


Killing Joke - Asteroid - текст песни, таба, видео

Регистрация Запомнить меня
Войти через:  Facebook Google Twitter Vk Yandex Mail.ru

Killing Joke - Asteroid - текст песни, таба, видео

Печатать
Просмотров: 69
-------------------------------------------------------------------------------
                           Asteroid - Killing Joke
-------------------------------------------------------------------------------

Tabbed by: Ricky Thomson
E-mail: warzone@gmx.co.uk

Tuning: Drop C (CGCFAd)


intro      
verse      [x4] 
chorus one 
verse      [x3]  
chorus two [x2]
break      
verse      [x3]
chorus two [x4]
outro      

-------------------------------------------------------------------------------


[intro]

d|--------------------------------------|
A|--------------------------------------|
F|--------------------------------------|
C|--------------------------------------|
G|--0x---------0x---------0x-0x---------|
C|--0x---------0x---------0x-0x---------|

d|--------------------------------------|
A|--------------------------------------|
F|--------------------------------------|
C|--------------------------------------|
G|--0x----------------------------------|
C|--0x----------------------------------|

d|--------------------------------------|
A|--------------------------------------|
F|--------------------------------------|
C|--------------------------------------|
G|--------------------------------------|
C|--------------------------------------|

[verse]

pm[       .   . . .         .   . . .    ]
 d|--------------------------------------|
 A|--------------------------------------|
 F|--------------------------------------|
 C|---------0-------0---------0-------0--|
 G|--1-0--0-0-0-0-0-0--1-0--0-0-0-0-0-0--|
 C|--1-0--0---0-0-0----1-0--0---0-0-0----|

pm[       .   . . .         .   . . .    ]
 d|--------------------------------------|
 A|--------------------------------------|
 F|--------------------------------------|
 C|---------0-------0---------0----------|
 G|--1-0--0-0-0-0-0-0--1-0--0-0-0-0-0-+5-|
 C|--1-0--0---0-0-0----1-0--0---0-0-0-+5-|


[chorus one]

d|--------------------------------------|
A|--------------------------------------|
F|--------------------------------------|
C|--------------------------------------|
G|--------------------------------------|
C|--------------------------------------|

pm[       .   . . .         .   . . .    ]
 d|--------------------------------------|
 A|--------------------------------------|
 F|--------------------------------------|
 C|---------0-------0---------0----------|
 G|--1-0--0-0-0-0-0-0--1-0--0-0-0-0-0-+5-|
 C|--1-0--0---0-0-0----1-0--0---0-0-0-+5-|

pm[       .   . . .         .    . . .   ]
 d|--------------------------------------|
 A|--------------------------------------|
 F|--------------------------------------|
 C|---------0-----------------0--------0-|
 G|--1-0--0-0-0-0-0+5--1-0--0-0--0-0-0-0-|
 C|--1-0--0---0-0-0+5--1-0--0----0-0-0---|

pm[       .   . . .         .   . . .    ]
 d|--------------------------------------|
 A|--------------------------------------|
 F|--------------------------------------|
 C|---------0-------0---------0-------0--|
 G|--1-0--0-0-0-0-0-0--1-0--0-0-0-0-0-0--|
 C|--1-0--0---0-0-0----1-0--0---0-0-0----|


pm[       .                              ]
 d|--------------------------------------|
 A|--------------------------------------|
 F|--------------------------------------|
 C|---------0---x------------------------|
 G|--1-0--0-0--0x------------------------|
 C|--1-0--0----0x------------------------|


[chorus two]

pm[       .   . . .         .   . . .    ]
 d|--------------------------------------|
 A|--------------------------------------|
 F|--------------------------------------|
 C|---------0-------0---------0-------0--|
 G|--1-0--0-0-0-0-0-0--1-0--0-0-0-0-0-0--|
 C|--1-0--0---0-0-0----1-0--0---0-0-0----|

pm[       .   . . .         .   . . .    ]
 d|--------------------------------------|
 A|--------------------------------------|
 F|--------------------------------------|
 C|---------0-------0---------0----------|
 G|--1-0--0-0-0-0-0-0--1-0--0-0-0-0-0-+5-|
 C|--1-0--0---0-0-0----1-0--0---0-0-0-+5-|


[break]

d|--------------------------------------|
A|--------------------------------------|
F|--------------------------------------|
C|--------------------------------------|
G|--0x-------0x-------0x-------0x-------|
C|--0x-------0x-------0x-------0x-------|

d|--------------------------------------|
A|--------------------------------------|
F|--------------------------------------|
C|--------------------------------------|
G|--0x----------------------------------|
C|--0x----------------------------------|


[outro]

pm[       .   . . .         .   . . .    ]
 d|--------------------------------------|
 A|--------------------------------------|
 F|--------------------------------------|
 C|---------0-------0---------0-------0--|
 G|--1-0--0-0-0-0-0-0--1-0--0-0-0-0-0-0--|
 C|--1-0--0---0-0-0----1-0--0---0-0-0----|

pm[       .   . . .         .   . . .    ]
 d|--------------------------------------|
 A|--------------------------------------|
 F|--------------------------------------|
 C|---------0-------0---------0----------|
 G|--1-0--0-0-0-0-0-0--1-0--0-0-0-0-0-+5-|
 C|--1-0--0---0-0-0----1-0--0---0-0-0-+5-|

pm[       .   . . .         .   . . .    ]
 d|--------------------------------------|
 A|--------------------------------------|
 F|--------------------------------------|
 C|---------0-------0---------0-------0--|
 G|--1-0--0-0-0-0-0-0--1-0--0-0-0-0-0-0--|
 C|--1-0--0---0-0-0----1-0--0---0-0-0----|

pm[       .   . .                        ] 
 d|--------------------------------------|
 A|--------------------------------------|
 F|--------------------------------------|
 C|---------0----------------------------|
 G|--1-0--0-0-0-0--0x-0x-----------------|
 C|--1-0--0---0-0--0x-0x-----------------|

d|--------------------------------------|
A|--------------------------------------|
F|--------------------------------------|
C|--------------------------------------|
G|--0x----------------------------------|
C|--0x----------------------------------|



************************************

| /   slide up
| \   slide down
| h   hammer-on
| p   pull-off
| ~   vibrato
| +   harmonic
| x   Mute note
| b   Bend
| pb  Pre-bend
| br  Bend release
| pbr Pre-bend release
| brb Bend release bend

************************************
Добавлено: 15.03.2016
Другие материалы по этой песне:
  • Аккорды и текст

Страница создана 16.03.2012
http://primanota.ru/killing-joke/asteroid-chords.htm
Привет, Гость.
Предлагаем пройти революционный курс по гитаре.
Подарок от PrimaNota.Ru, забирай!