PrimaNota.ru - самый крупный в мире бесплатный архив песенных текстов, аккордов, табулатур и нот


Killing Joke - Aeon - текст песни, таба, видео

Регистрация Запомнить меня
Войти через:  Facebook Google Twitter Vk Yandex Mail.ru

Killing Joke - Aeon - текст песни, таба, видео

Печатать
Просмотров: 180
Уроки эстрадного вокала в Санкт-Петербурге
Авторы: Jaz Coleman, Martin Glover, Geordie Walker

AEON. Album : Democracy (1996)

In the main riff and the break 1 let ring the C open string to make a kind of permanent “buzzing” sound.

MAIN RIFF / VERSES.
C open string = down-strokes, F-A-D chords = up-strokes.
Let all ring…

D--------------8-----------------|
A------7---8---8---8-----7---8---|
F-7----7---7---------7---7---7---|
C-0--0---0---0---0-----0---0---0-|
G--------------------------------|
D--------------------------------|

Alternating main riffs, played at the end of BAR.

D--------------------------------|
A------7---8-------8-----8---8---|
F-7----7---7---9-------9---9-----|
C-0--0---0---0---0---0---------0-|
G--------------------------------|
D--------------------------------|

D--------------8-----------------|
A------7---8---8---7-----8---7---|
F-7----7---7-------7---9---9-----|
C-0--0---0---0---0---0---------0-|
G--------------------------------|
D--------------------------------|

BREAK 1. Let ring…

D-----------------------------------------------------------------------------|
A---10-10-10-10---10-10---11-11-11-11---11-11---8-8-8-8---8-8---7-7-7-7---7-7-|
F----7--7--7--7----7--7----7--7--7--7----7--7---7-7-7-7---7-7---7-7-7-7---7-7-|
C-0--0----------0--0----0--0----------0--0----0-0-------0-0---0-0-------0-0---|
G-----------------------------------------------------------------------------|
D-----------------------------------------------------------------------------|

D-----------------------------------------------------------------------------|
A---10-10-10-10---10-10---12-12-12-12---12-12---8-8-8-8---8-8---7-7-7-7---7-7-|
F----7--7--7--7----7--7----7--7--7--7----7--7---7-7-7-7---7-7---7-7-7-7---7-7-|
C-0--0----------0--0----0--0----------0--0----0-0-------0-0---0-0-------0-0---|
G-----------------------------------------------------------------------------|
D-----------------------------------------------------------------------------|

D-----------------12--------------------------------------------------|
A---15-15-15-15-----15---13-13-13-13---15-13----12-12-12-12---13-12---|
F---14-14-14-14----------14-14-14-14------------14-14-14-14-----------|
C-0--0----------0-----0--------------0--------0--------------0------0-|
G---------------------------------------------------------------------|
D---------------------------------------------------------------------|

D----------------------------------------------------------------------------------|
A-10-10-10-10---10-10---10-10-10-10---10-10----8-8-8-8---8-8---7-7-7-7--7-7-7—-7-7-|
F--7--7--7--7----7--7----7--7--7--7----7--7----7-7-7-7---7-7---7-7-7-7--7-7-7--7-7-|
C--0----------0--0----0--0----------0--0-----0-0-------0-0---0-0--------0------0---|
G----------------------------------------------------------------------------------|
D----------------------------------------------------------------------------------|



PRE-CHORUS BREAK. Let ring…

D-0--0-0--0-0-0--0-0-0--0-0-0--0-0-0--0-0-0--0-0-0---0-0---|
A-0--0-0--0-0-0--0-0-0--0-0-0--0-0-0--0-0-0--0-0-0---0-0---|
F-9--9-9--9-9-9--9-9-9--9-9-9--9-9-9--9-9-9--9-9-9---9-9---|
C-9--9-9--9-9-9--9-9-9--9-9-9--9-9-9--9-9-9--9-9-9---9-9---|
G-7--7-7--7-7-7--7-7-7--7-7-7--7-7-7--7-7-7--7-7-7---7-7---|
D-0--0-0--0-0-0--0-0-0--0-0-0--0-0-0--0-0-0--0-0-0---0-0---|


CHORUS. Let ring…

D-0^3-3-3--3-3-2-2--2-0--0-0-------------------------------|
A-0---0-0--0-0-0-0--0-0—-0-0-------0-------------0------0--|
F-4---4-4--4-----4--4----4-4-------------------------------|
C-4---4-4--4-----4--4----4-4-----2-------------0-----------|
G------------------------------0---------------------4-----|
D-------------------------------------------3------2-------|
Добавлено: 30.07.2012
Другие материалы по этой песне:
  • Аккорды и текст

Страница создана 04.04.2012
http://primanota.ru/killing-joke/aeon-chords.htm
Привет, Гость.
Предлагаем пройти революционный курс по гитаре.
Подарок от PrimaNota.Ru, забирай!