PrimaNota.ru - самый крупный в мире бесплатный архив песенных текстов, аккордов, табулатур и нот


Killing Heidi - I Am - текст песни, таба, видео

Регистрация Запомнить меня
Войти через:  Facebook Google Twitter Vk Yandex Mail.ru

Killing Heidi - I Am - текст песни, таба, видео

Печатать
Просмотров: 234
OK. I'll probably tab the whole song soon, but just for now I'm only doing the solo.
it is . . .

e---------------------------|
b-------------------6-------|
g-8-7-5-----8-7-5-----------|   X2
d-------8-8-------8---8-x-8-|
a---------------------------|
e---------------------------|

There you go. Enjoy!

OK, I'm finlly getting round to tabbing the whole song. I hope you enjoy it, and find it 
Please rate and comment on this tab. Thank you, and happy playing!

V= Down Stroke
^= Up Stroke


Chords:

   Cm  Bb  Ab  C5  A5   B5
1--8---6---4---------------|
2--8---6---4---------------|
3--8---7---5---------------|
4--10--8---6---10--6---8---|
5--10--8---6---10--6---8---|
6--8---6---4---8---4---6---|


Intro:

Cm    Bb     Bb    Ab
V^V^V ^VV^V^ V^V^V ^VV^V^ X4 (X2 with solo)

Solo: (play Intro over top if you have two guitars)

e---------------------------|
b-------------------6-------|
g-8-7-5-----8-7-5-----------|   X2
d-------8-8-------8---8-x-8-|
a---------------------------|
e---------------------------|

Verse:

  Cm                                         Bb
1-8------------------------------------------6---6-6-|
2-8------------------------------------------6---6-6-|
3-8------------------------------------------7---7-7-|
4-10-----------------------------------------8-------|
5-10-----------------------------------------8-------|
6-8------------------------------------------6-------|
  V                                          V   V V
  I know, I know, I know, I know, what you'd say

  Cm                                      Ab     Bb
1-8---------------------------------------4---4--6--6-|
2-8---------------------------------------4---4--6--6-|
3-8---------------------------------------5---5--7--7-|
4-10--------------------------------------6---6--8--8-|
5-10--------------------------------------6---6--8--8-|
6-8---------------------------------------4---4--6--6-|
  V                                       V   V  V  V
  I know, I know, I know, I know, all the games you play

  Cm                          Bb
1-8---------------------------6-----6-6-|
2-8---------------------------6-----6-6-|
3-8---------------------------7-----7-7-|
4-10--------------------------8---------|
5-10--------------------------8---------|
6-8---------------------------6---------|
  V                           V     V V
  I am, I am, I am, I am, not afraid

  Cm                                             Ab     Bb
1-8----------------------------------------------4---4--6--6-|
2-8----------------------------------------------4---4--6--6-|
3-8----------------------------------------------5---5--7--7-|
4-10---------------------------------------------6---6--8--8-|
5-10---------------------------------------------6---6--8--8-|
6-8----------------------------------------------4---4--6--6-|
  V                                              V   V  V  V
 'Cause I know, I know, I know, I know, what to say

Prechorus:

  C5              A5   B5
1--------------------------|
2--------------------------|
3--------------------------|
4-10--------------6----8---|
5-10--------------6----8---|
6-8---------------4----6---|
  V V V V V V V V VVVV VVVV
  I feel it, it's co---ming
  It's here if you want it,


Chorus

           C5                A5        B5
1----------------------------------------------|
2----------------------------------------------|
3----------------------------------------------|
4----------10----------------6---------8-------|
5----------10----------------6---------8-------|
6----------8-----------------4---------6-------|
           V^V^V^V^V^V^V^V^  V^V^V^V^  V^V^V^V^
  'Cause I am,               out on my own

           C5                A5     B5          C5
           Movin in shadows, nobody knows who I am
           A5       B5
           Standing alone
           C5                                    A5 B5
           And it's me, but you can't see what I am
  C5
1-----------|
2-----------|
3-----------|
4-10--------|
5-10--------|
6-8---------|
  VV^VV^^VV^

Verse:

     Cm               Bb
1-8-------------------6------6----6-|
2-8-------------------6------6----6-|
3-8-------------------7------7----7-|
4-10------------------8-------------|
5-10------------------8-------------|
6-8-------------------6-------------|
  I'd like to rip you out of your skin


  Cm                           Ab     Bb
1-8----------------------------4---4--6--6-|
2-8----------------------------4---4--6--6-|
3-8--------------------------- 5---5--7--7-|
4-10---------------------------6---6--8--8-|
5-10---------------------------6---6--8--8-|
6-8----------------------------4---4--6--6-|
  I'd switch us around and put you back in and

  Cm                                         Bb
1-8------------------------------------------6-----6-6-|
2-8------------------------------------------6-----6-6-|
3-8------------------------------------------7-----7-7-|
4-10-----------------------------------------8---------|
5-10-----------------------------------------8---------|
6-8------------------------------------------6---------|
  I know, I know, I know, I know, what you'd say

  Cm                     Ab     Bb
1-8----------------------4---4--6--6-|
2-8----------------------4---4--4--6-|
3-8----------------------5---5--7--7-|
4-10---------------------6---6--8--8-|
5-10---------------------6---6--8--8-|
6-8----------------------4---4--6--6-|
  But it couldn't be any other way

Prechorus:

Chorus:

Bridge:

1------------------------------------------------------|
2------------------------------------------------------|
3------------------------------------------------------|
4------------------------------------------------------|
5------------------------------------------------------|
6-8----------------------------7-----------------------|
  VVVVVVVV                     VVVVVVVV
  So close but you don't know  It's me but you can't see

1-------------------------------------------------------|
2-------------------------------------------------------|
3-------------------------------------------------------|
4-------------------------------------------------------|
5-------------------------------------------------------|
6-6----------------------------5------------------------|
  VVVVVVVV                     VVVVVVVV
  So close but you don't know  It's me but you can't see

1------------------------------------------------------|
2------------------------------------------------------|
3------------------------------------------------------|
4------------------------------------------------------|
5------------------------------------------------------|
6-8----------------------------7-----------------------|
  VVVVVVVV                     VVVVVVVV
  So close but you don't know  It's me but you can't see

1-------------------------------------------------------|
2-------------------------------------------------------|
3-------------------------------------------------------|
4-------------------------------------------------------|
5-------------------------------------------------------|
6-6----------------------------5------------------------|
  VVVVVVVV                     VVVVVVVV
  So close but you don't know  It's me but you can't see

1------------------------------------------------------|
2------------------------------------------------------|
3------------------------------------------------------|
4------------------------------------------------------|
5------------------------------------------------------|
6-8----------------------------7-----------------------|
  VVVVVVVV                     VVVVVVVV
  So close but you don't know  It's me but you can't see

1-------------------------------------------------------|
2-------------------------------------------------------|
3-------------------------------------------------------|
4-------------------------------------------------------|
5-------------------------------------------------------|
6-6----------------------------5------------------------|
  VVVVVVVV                     VVVVVVVV
  So close but you don't know  It's me but you can't see

1------------------------------------------------------|
2------------------------------------------------------|
3------------------------------------------------------|
4------------------------------------------------------|
5------------------------------------------------------|
6-8----------------------------7-----------------------|
  VVVVVVVV                     VVVVVVVV
  So close but you don't know  It's me but you can't see

1-------------------------------------------------------|
2-------------------------------------------------------|
3-------------------------------------------------------|
4-------------------------------------------------------|
5-------------------------------------------------------|
6-6----------------------------5------------------------|
  VVVVVVVV                     VVVVVVVV
  So close but you don't know  It's me but you can't see

Prechorus:

Chorus:


And that's it! I hope the tab is easy to read, and you have lots of fun with the song.
Remember to rate and comment, and if you have any changes please make a new tab!
Thank you!
Добавлено: 06.07.2012
Другие материалы по этой песне:

Страница создана 04.03.2012
http://primanota.ru/killing-heidi/i-am-chords.htm
Привет, Гость.
Предлагаем пройти революционный курс по гитаре.
Подарок от PrimaNota.Ru, забирай!