PrimaNota.ru - самый крупный в мире бесплатный архив песенных текстов, аккордов, табулатур и нот


Killers - When you where young - бас-таба, видео

Регистрация Запомнить меня
Войти через:  Facebook Google Twitter Vk Yandex Mail.ru

Killers - When you where young - бас-таба, видео

Печатать
Просмотров: 350
Уроки эстрадного вокала в Санкт-Петербурге


When You Were Young - The Killers

TABBED BY: Klooa (Based off cdmoser's Tab)
COMMENTS Or questions to: Kurokitsume@gmail.com


Ok, so This was Tabbed By me an' a friend From cdmoser's (/tabs/k/killers/when_you_were_young_ver8_tab.htm) tab of this.
So Credit for the major stuff goes to him.

What we did was Tab this out to be played by a bassist and a drummer, getting all
the audiable and clearer parts of the song that we could to make it an
acceptable mash of the song.

So this for all the Bassists tired of playing rhythm 

You might need to tune up a bit though.




G|--0----|  Play this opening chord with a quick upstroke and then
D|--10---|  volume swell w/distortion
A|--8----|
E|--x----|

MUTE OVER FIRST FRET and Ka-chunk 

G|-x-x-----0-x8--0-x4---0-x4---0--x8---0-x8------  x2
D|-x-x-----3-x8--5-x4---7-x4---10-x8---3-x8------
A|-x-x-------------------------------------------
E|-x-x-------------------------------------------


G|----------10-8----------------10-8-----------------
D|-----------------7------------------------------------
A|--7h10----------------7h10---------7---7-bend/whammy this
E|------------------------------------------------------


G|------------------------------------------------------------------
D|------------------------------------------------------------------  x2
A|---------------------------0-0-0-0amp;#8212;3-3-3-3-3-3-3-3----------------
E|---1-1-1-1-1-1-1-1amp;#8212;3-3-3-3-------------------------1-1-1-1-1-1-1-1

you sit there in your heartache...

G|---------10-------12---13------15-------10---------------------------------
D|---------0--------0----0-------0--------0-------(let the open d ring)------
A|-------10------12----14------17--//---10-----------------------------------
E|------8-------10----12------15---//--8-------------------------------------

he doesn't look a thing like jesus...

G|----------10-8----------------10-8-----------------
D|-----------------7------------------------------------
A|--7h10----------------7h10---------7---7-bend/whammy this
E|------------------------------------------------------

...when you were young

G|------------------------------------------------------------------
D|------------------------------------------------------------------  x2
A|---------------------------0-0-0-0amp;#8212;3-3-3-3-3-3-3-3----------------
E|---1-1-1-1-1-1-1-1amp;#8212;3-3-3-3-------------------------1-1-1-1-1-1-1-1
can we climb this mountain...

G|---------10-------12---13------15-------10--------------------------------
D|---------0--------0----0-------0--------0-------(let the open d ring)------
A|-------10------12----14------17--//---10-----------------------------------
E|------8-------10----12------15---//--8-------------------------------------

we're burning down the highway skyline...

G|----------10-8----------------10-8-----------------
D|-----------------7------------------------------------
A|--7h10----------------7h10---------7---7-bend/whammy this
E|------------------------------------------------------

...when you were young


G|---------10-------12---13------15-------10---------------------------------
D|---------0--------0----0-------0--------0-------(let the open D ring)------
A|-------10------12----14------17--//---10-----------------------------------
E|------8-------10----12------15---//--8-------------------------------------

and sometimes you close your eyes
    and you see the place where you used to live...

G|--1amp;#8212;3--- 15-15-15-15-15-15-15-15-15-15-15-15-15-15------------------------
D|--0amp;#8212;0----------------------------------------------12-12-12-/-14-14-14-14-
A|--------------------------------------------------------------------------
E|--------------------------------------------------------------------------

  ...when you were young

G|----------17-15-----------------------17-15---------------------------
D|-----------------15-17-13-------------------14------------------------
A|--14h17------------------------14h17-----------------{1x}------------
E|----------------------------------------------------------------------


G|--10--9--7--5----5-4-2--0---------------------------
D|--8---7--5--3----3-2-0--x---------------------------
A|----------------------------------------------------
E|----------------------------------------------------
    Breakdown

              Dm
They say the Devil's water it ain't so sweet
    F                         Am
You don't have to drink right now
Em                   Am
But you can dip your feet in
G
Every once in a little while...

G|--8~~8~~8~~~~~~~~~~15-15-15-15-15-15-15-15-15-15-15-15--------------------
D|-----(faintly)-----------------------------------------12-12-12-12-/-14-14-14-14-
A|---------------------------------------------------------------------------
E|---------------------------------------------------------------------------


G|-----------------------------------------------------------------------
D|-17-17-17-17-17-17-17-17-17-17-17-17-17-17-17-17---------------------------
A|-------------------------------------------------12-12-12-12-/-14-14-14-14-14-14--
E|--------------------------------------------------------------------------

G|-----------------------------------------------------------------
D|-----------------------------------------------------------------
A|---------------------------0-0-0-0amp;#8212;3-3-3-3-3-3-3-3---------------
E|---1-1-1-1-1-1-1-1amp;#8212;3-3-3-3------------------------1-1-1-1-1-1-1-1

  Until
   he doesn't look a thing like jesus...

G|----------------------------------------------------------
D|----------------------------------------------------------
A|--5555555555555555555555555-10101010-9-7777777-5-3333-----
E|--3333333333333333333333333-8-8-8-8--7-5555555-3-1111-----

G|----------10-8--------
D|-----------------7----- (Slowly x2)
A|--7h10----------------
E|------------------------

G|----------10-8----------------10-8-----------------
D|-----------------7------------------------------------
A|--7h10----------------7h10---------7---7-bend/whammy this
E|------------------------------------------------------

G|----------17-15------------------------17-15------------------
D|-----------------15-17-13--------------------14---------------
A|--14h17------------------------14h17-----------------{2x}-----
E|--------------------------------------------------------------



G|--10--9--7--5----5-4-2--0----End on G-------------------------
D|--8---7--5--3----3-2-0--x-------------------------------------
A|--------------------------------------------------------------
E|--------------------------------------------------------------
Breakdown

But more than you'll ever know...


Добавлено: 01.08.2013
Другие материалы по этой песне:
  • Аккорды и текст

Страница создана 01.08.2013
http://primanota.ru/killers/when-you-where-young-chords.htm
Привет, Гость.
Предлагаем пройти революционный курс по гитаре.
Подарок от PrimaNota.Ru, забирай!