PrimaNota.ru - самый крупный в мире бесплатный архив песенных текстов, аккордов, табулатур и нот


Killers - A Great Big Sled - текст песни, таба, видео

Регистрация Запомнить меня
Войти через:  Facebook Google Twitter Vk Yandex Mail.ru

Killers - A Great Big Sled - текст песни, таба, видео

Печатать
Просмотров: 219
The Killers - A Great Big Sled
Tabbed by: Nick Van Den Broeke    nuke126@gmail.com

Regular tuning: EADGBe

Chords used:

Am:   0-0-2-2-1-0--|
Ab5:  4-6-6-x-x-x--|
Bm:   x-2-4-4-3-2--|
C:    0-3-2-0-1-0--|
C5:   x-3-5-5-x-x--|
Dm:   x-0-0-2-3-1--|
E:    0-2-2-1-0-0--|
Em:   0-2-2-0-0-0--|
F:    1-3-3-2-1-1--|
F5:   1-3-3-x-x-x--|
G:    3-2-0-0-3-3--|
G:    3-5-5-4-3-3--|
G5:   3-5-5-x-x-x--|
Gmaj: 7-10-9-7-8-7-|

Intro:

F G C F Em Dm

e----------------------------------------------------------------------17-15--|
B----------15-17-15-------------15-17-15----------15-17-15----------15--------|
G-17----17----------17-17----17----------17----17----------17----17-----------|
D----17-------------------17----------------15----------------15--------------|
A-----------------------------------------------------------------------------|
E-----------------------------------------------------------------------------|

e----------------------------------------------------------------------15-13--|
B----------15-17-15-------------15-17-15-------------15-------------15--------|
G-17----17----------17-17----17----------16----16-17----17-16----16-----------|
D----17-------------------17----------------17----------------17--------------|
A-----------------------------------------------------------------------------|
E-----------------------------------------------------------------------------|

Verse 1:

The snowman is shaping up to be an eight, but not out of ten
    C5                                               G5
The robots awake to find out they've been taped down wondering when
Am
They'll break through these chains,
F                                    C
but little boys have action toys for brains
                         G
I'm living proof it can last a long time
C5
Now the girls up the street are innocent and sweet
             F5
well they're all in bed
               C5
They got their makeup and dreams of wonderland
           G5
sprinkled inside their heads
   Am                              F
e--0----------------------0--------1--|
B--1---------------1---------------1--|
G--2-----------------2-------2-----2--|
D--2-------------------2-------2---3--|
A--0-------------------------------3--|
E----------------------------------1--|

Soon they will change,
    F                                        C
but tonight Hollywood Hills never seemed so strange

                             G
e----------------------------3--|
B--------1------1------------3--|
G------0--0---0---0----------0--|
D--2h3------2----------------0--|
A----------------------------2--|
E----------------------------3--|

Their mother's praying it'll last a long time

Chorus 1:
             C             F          Em
I wanna roll around like a kid in the snow
G   Ab5 Am             F       Em
I wanna relearn what I already know
G                 F
Just let me take flight
           G               C          F     Em  Dm
dressed in red through the night on a great big sled
                       C5
I wanna wish you Merry Christmas... Ho Ho Ho

e-------------------------------17-15--|
B----------15-17-15----------15--------|
G-17----17----------17----17-----------|
D----17----------------17--------------|
A--------------------------------------|
E--------------------------------------|

Verse 2:
        C
Now the boys are all grown up
                        F
out there working their fingers to the bone
       C
they go around chasing them girls on the weekend
                    G
you know they still can't be alone

         Am
e---------0------------------------------0-------|
B---------1-----------------------1--------------|
G---------2-------------------------2-------2----|
D---------2---------------------------2-------2--|
A---------0--------------------------------------|
E------------------------------------------------|

I've been racking my brain with thoughts of peace and love
F                                C
how on Earth did we get so mixed up
                        G
e-----------------------3--|
B--------1------1-------3--|
G------0--0---0---0-----0--|
D--2h3------2-----------0--|
A-----------------------2--|
E-----------------------3--|
I pray to God it don't last a long time

Chorus 2:
             C             F          Em
I wanna roll around like a kid in the snow
G   Ab5 Am             F       Em
I wanna relearn what I already know
G                 F
Just let me take flight
           G               C          F     Em  Am
dressed in red through the night on a great big sled

Bridge: (sung by Toni Halliday)

Am
I hear the sound of bells
                               Dm
e----------0--------------0----1--|
B--1---1-3---3-1--1---1-3---3--3--|
G----2--------------2----------2--|
D------------------------------0--|
A---------------------------------|
E---------------------------------|

Dm
There's something on the roof

                               G (upstroke)
e----------0--------------0----3--|
B--1---1-3---3-1--1---1-3---3--3--|
G----2--------------2----------0--|
D------------------------------0--|
A------------------------------2--|
E------------------------------3--|

  G                              E       Am    Bm    Dm
e-3-----------0-------------0----0-------0-----2-----1--|
B-3---0---0--3--3-0-0---0-3---3--0-------1-----3-----3--|
G-0-----0-------------0----------1-------2-----4-----2--|
D-0------------------------------2-------2-----4-----0--|
A-2------------------------------2-------0-----2--------|
E-3------------------------------0----------------------|

  I wonder what this night will bring


Chorus 3:
             C             F          Em
I wanna roll around like a kid in the snow
               (I hear the sound of bells)
G   Ab5 Am             F       Em
I wanna relearn what I already know
        (There's something on the roof)
G                 F                G               C          F     Em  Dm           Gmaj
Just let me take flight dressed in red through the night on a great big sled
                    (I wonder what this night will bring)
Outro:

I wanna wish you Merry Christmas (can't do that)
I wanna wish you Merry Christmas (can't do that)

F  Em  Dm  C (final chords played with bass and strings)
Добавлено: 06.10.2013
Другие материалы по этой песне:
  • Аккорды и текст

Страница создана 09.07.2012
http://primanota.ru/killers/a-great-big-sled-chords.htm
Привет, Гость.
Предлагаем пройти революционный курс по гитаре.
Подарок от PrimaNota.Ru, забирай!