PrimaNota.ru - самый крупный в мире бесплатный архив песенных текстов, аккордов, табулатур и нот


Killerpilze - Stubenrocker - таба, видео

Регистрация Запомнить меня
Войти через:  Facebook Google Twitter Vk Yandex Mail.ru

Killerpilze - Stubenrocker - таба, видео

Печатать
Просмотров: 173
Another hour of my life - hope it works for you:

Start TAB 1/2:
e|---3\1---1-3\1---1-----3\1---1-3\1---1-----3\1---1-3\1---1-----3-8-8-3-3-|
B|-------3-------3---3-------3-------3---3-------3-------3---3-------------|
G|-0-------------------0---------------------------------------------------|
D|-----------------------------------------1-------------------3-----------|
A|-------------------------------------------------------------------------|
E|-------------------------------------------------------------------------|
Start TAB 2/2
e|---3\1---1-3\1---1-----3\1---1-3\1---1-----3\1---1-3\1---1-----3\1---1-111-|
B|-------3-------3---3-------3-------3---3-------3-------3---3-------3---333-|
G|-0-------------------0-----------------------------------------------------|
D|-----------------------------------------1-------------------3-------------|
A|---------------------------------------------------------------------------|
E|---------------------------------------------------------------------------|

Verse - Power Chords:
   G    D#   F    C
e|-x--|-x--|-x--|-x--|
b|-x--|-x--|-x--|-x--|
G|-x--|-8--|-A--|-x--|
D|-5--|-8--|-A--|-A--|
A|-5--|-6--|-8--|-A--|
E|-3--|-x--|-x--|-8--|

Chorus - Power Chords:
   G    D    D#   Bb
e|-x--|-x--|-x--|-x--|
b|-x--|-x--|-x--|-x--|
G|-x--|-7--|-8--|-x--|
D|-5--|-7--|-8--|-8--|
A|-5--|-5--|-6--|-8--|
E|-3--|-x--|-x--|-6--|


//Start TAB 1/2//
//Start TAB 2/2 plus 'Verse - Power Chords'//
G              D#               F              C
Du sitzt nur alleine rum, weißt selber nicht genau warum.
    G              D#                  F             C
Mit deiner Gitarre auf dem Bett, deine Texte sind im Schrank versteckt.
G     D#                     F        C
Warum spielst du nicht, wenn ich dich frag'?
G            D#             F             C
Zeig' deinen Song, dann ist das hier dein Tag!

Chorus:
G  D        D#                   Bb             G
Du bist ein Stubenrocker und ich singe hier für dich - 
          D               D#   Bb
willst du nicht ins Rampenlicht?
G              D          D#             Bb
Komm' doch mal wieder raus und spiel ein Lied für mich!
G            D                 D#   Bb
Ich würd' so gern' was von dir hör'n.

G                    D#                 F             C
Willst du denn nicht einfach raus, wenn du aus deinem Fenster schaust?
G                D#           F                  C
Draußen hörst du geile Ribs gespielt von drei Millionen Kids.
G          D#              F          C
Komm' doch einfach mit und schäm' dich nicht!
G          D#                F        C
Hol' die Gitarre, zeig' dein wahres Gesicht!

//Chorus//
//Solo//
//Chorus//

//Play 'Start TAB 1/2' for that//
Jetzt bist du da und es ist cool, was du hier singst.
//Play 'Start TAB 2/2' for that//
Hörst du nicht, wie dein Song im Radio klingt?
//Play 'Start TAB 2/2' plus 'Verse - Power Chords' for rest//
Die Welt hat dich gesucht; für 'nen Moment bist du der Star.

Dir jubeln alle zu und langsam wird's dir klar:

Du fühlst dich ziemlich gut und alles verschwimmt im Raum.

Du machst die Augen auf - lebe deinen Traum!

//Chorus//
G           D        D#         Bb
Bis in alle Ewigkeit sitzt du allein zuhaus.
G           D               D#   Bb  G(fade out)
Wann kommst du denn endlich raus?


That should be it! So, do what the song is calling out for: Get your guitar and start playing...
Добавлено: 26.02.2012
Другие материалы по этой песне:

Страница создана 26.02.2012
http://primanota.ru/killerpilze/stubenrocker-chords.htm
Привет, Гость.
Предлагаем пройти революционный курс по гитаре.
Подарок от PrimaNota.Ru, забирай!