PrimaNota.ru - самый крупный в мире бесплатный архив песенных текстов, аккордов, табулатур и нот


Killerpilze - Springt Hoch - текст песни, таба, видео

Регистрация Запомнить меня
Войти через:  Facebook Google Twitter Vk Yandex Mail.ru

Killerpilze - Springt Hoch - текст песни, таба, видео

Печатать
Просмотров: 267
Hi,

here's what I meant to hear...

Intro:
e|-------------------------------|
b|-------------------------------|
G|---------2-2-0-----------0-0---|  (2x)
D|-2-2-0-0---------2-2-0-0-----2-|
A|-------------------------------|
E|-------------------------------|

then Power Chords:
   E   D   C   A
e|---|---|---|---|
b|---|---|---|---|
G|-9-|-7-|-5-|-2-| (and again
D|-9-|-7-|-5-|-2-|  and again)
A|-7-|-5-|-3-|-0-|
E|---|---|---|---|

Solo:
e|---3-2-----0-0/2-----------------|
b|---------------------0-------0---|
G|-----------------------0-------0-|
D|-2-------0-----------------------|
A|-------------------3-------0-----|
E|---------------------------------|
then Power Chords again...

Acoustic part:
   e7   D2   C2   A4
e|-0--|-0--|-0--|-0--|
b|-3--|-3--|-3--|-3--|
G|-0--|-2--|-0--|-2--|
D|-2--|-0--|-2--|-2--|
A|-2--|-0--|-3--|-0--|
E|-0--|-0--|-0--|-0--|
and (what else): Power Chords again

I think, that's basicly it. But correct it - I'm newbie at this!

"Killerpilze" is a new German band. Have a look (German languange only):
www.killerpilze.de/
Добавлено: 02.04.2012
Другие материалы по этой песне:

Страница создана 01.03.2012
http://primanota.ru/killerpilze/springt-hoch-chords.htm
Привет, Гость.
Предлагаем пройти революционный курс по гитаре.
Подарок от PrimaNota.Ru, забирай!