PrimaNota.ru - самый крупный в мире бесплатный архив песенных текстов, аккордов, табулатур и нот


Killerpilze - Komm Mit - текст песни, таба, видео

Регистрация Запомнить меня
Войти через:  Facebook Google Twitter Vk Yandex Mail.ru

Killerpilze - Komm Mit - текст песни, таба, видео

Печатать
Просмотров: 275
Уроки эстрадного вокала в Санкт-Петербурге
Normal Tuning: E A D G B e

2x
e|-------------------|-------------------|
A|-------------------|-------------------|
D|-------------------|-------------------|
G|-----11---12-------|-------------------|
B|-9----- 9------9-12|---12---9-12-9-11-9|
E|-------------------|-------------------|

e|-------------------|---------------|
A|-------------------|---------------|
D|-------------------|---------------|
G|-----11---12-------|---------------|
B|-9----- 9------9-12|---12---9-12~~~|
E|-------------------|---------------|

Hope this is right, if it's not please contact me.
Добавлено: 10.03.2012
Другие материалы по этой песне:
  • Аккорды и текст

Страница создана 10.03.2012
http://primanota.ru/killerpilze/komm-mit-chords.htm
Привет, Гость.
Предлагаем пройти революционный курс по гитаре.
Подарок от PrimaNota.Ru, забирай!