PrimaNota.ru - самый крупный в мире бесплатный архив песенных текстов, аккордов, табулатур и нот


Killer Dwarfs - Dirty Weapons - таба, видео

Регистрация Запомнить меня
Войти через:  Facebook Google Twitter Vk Yandex Mail.ru

Killer Dwarfs - Dirty Weapons - таба, видео

Печатать
Просмотров: 100
Уроки эстрадного вокала в Санкт-Петербурге
Killer Dwarfs: Dirty Weapons
Transcribed by Steve Liston
sliston@cogeco.ca
 
Cool Toronto Canada band from the 80s
 
Tuning 1/2 step down.
 

Intro:
E|-------------------------------------------|
B|-----------------7-b7-5--------------------|
G|--2------5-5-5-7-7-b7-5-7--10----5-5--5-4--|Play 2 times.
D|--2------4-4-5-7--------7--10----5-5--5-5--|
A|--0-b3p0-------------------8---------------|
E|-------------------------------------------|
 
Verse:
E|-------------------------------------|
B|--2------5-5---------10----5-5--5-4--|
G|--2------4-4-222222--10----5-5--5-5--|Play 2 times.
D|--0-b3p0-----000000--8---------------|
A|-------------------------------------|
E|-------------------------------------|
 
Chorus
E|--------3------------------------3------------------|
B|--------3------------------------3------------------|
G|----------2------------------------2-------------5--|
D|--3-3-5---2----------------3-3-5---2-------------5--|
A|--3-3-5---0-0-b3r0-b3r0----3-3-5---0-0-b3r0-b3r0----|
E|--1-1-3-----------------3--1-1-3--------------------|
 
E|--------3-------------------------------|
B|--------3-------------------------------|
G|----------2---------------5-------------|
D|--3-3-5---2---------------5----5p4-5-4--|
A|--3-3-5---0-0-b3r0-b3r0---3-------5-----|
E|--1-1-3-----------------3-3-------------|
 
The song repeats it's self here.
 
There's a ripin' solo after the second chorus which I can't play
never-mind tab.
 
But after the solo it goes like this:
 
    F    C A      D      E     F    C A      D D      D D   D E
E|----------------2---------|----------------2-2------2-2---2-------------|
B|----------------3---------|----------------3-3------3-3---3-------------|
G|-------5-2------2---------|-------5-2------2-2------2-2---2------5-5-4--|
D|--3----5-2------0------2--|--3----5-2------0-0-0000-0-0-0-0-2----5-5-5--|
A|--3----3-0-------------2--|--3----3-0-----------------------2-----------|
E|--1-----------3------3-0--|--1-----------3------------------0-----------|
 
You^Òll notice that this is not perfect, but it^Òs close enough to have
fun with.
 
Comments and suggestion welcome.
 

 

     
Добавлено: 31.08.2013
Вам также может быть интересно:
Другие материалы по этой песне:
  • Аккорды и текст

Страница создана 31.08.2013
http://primanota.ru/killer-dwarfs/dirty-weapons-chords.htm
Привет, Гость.
Предлагаем пройти революционный курс по гитаре.
Подарок от PrimaNota.Ru, забирай!