PrimaNota.ru - самый крупный в мире бесплатный архив песенных текстов, аккордов, табулатур и нот


Kill The Young - We Are The Birds - бас-таба, видео

Регистрация Запомнить меня
Войти через:  Facebook Google Twitter Vk Yandex Mail.ru

Kill The Young - We Are The Birds - бас-таба, видео

Печатать
Просмотров: 135
Уроки эстрадного вокала в Санкт-Петербурге
Artiste: Kill The Young
Titre: We are the Birds
Tableur:4ary4
Acordage standard, légère distortion(joué au médiator normalement)



G[--------|--------|--------|--------|]
D[--------|--------|--------|--------|]
A[--------|--------|--------|--------|]   intro
E[4-------|4-------|4---4---|4-4-444-|]

G[--------|--------  ||
D[--464---|-------- o||   Riff principal
A[-6---6--|--464--- o||
E[4-----4-|47---74-  ||

G[--------|--------  ||
D[--464-46|4-464--- o||   fin du Riff principal
A[-6---6--|-6---67- o||
E[4-------|--------  ||

G[--------|--------  ||
D[--------|-------- o||   refrain
A[77777774|44444447 o||
E[--------|--------  ||

G[--------|--------|--------|-------- ||
D[--------|--------|--------|-------- ||   fin refrain
A[77777774|44444446|66666666|66666666 ||
E[--------|--------|--------|-------- ||

G[---------|---------|  ||
D[----6.---|---------| o||   transition, un peu hasardeuse
A[6-6------|6-6------| o||
E[---------|----4.---|  ||

Pour la fin:variation du thème principale:deux dernière mesures:

G[--------  ||
D[-------- o|| X3  OUTRO
A[--464--- o||
E[47---74-  ||

G[--------|--------|-------- ||
D[--------|--------|-------- ||   fin du Riff principal
A[--464-46|-46-46--|-------- ||
E[47---7--|7--7--74|4---4--- ||

4ary4


Добавлено: 30.05.2012
Другие материалы по этой песне:
  • Аккорды и текст

Страница создана 30.05.2012
http://primanota.ru/kill-the-young/we-are-the-birds-chords.htm
Привет, Гость.
Предлагаем пройти революционный курс по гитаре.
Подарок от PrimaNota.Ru, забирай!