PrimaNota.ru - самый крупный в мире бесплатный архив песенных текстов, аккордов, табулатур и нот


Kill The Young - Origin Of Illness - таба, видео

Регистрация Запомнить меня
Войти через:  Facebook Google Twitter Vk Yandex Mail.ru

Kill The Young - Origin Of Illness - таба, видео

Печатать
Просмотров: 127
Kill the young – Origin Of illness
(Main riff and solo)

Any questions, problems, email applepunk41(a)hotmail.fr

This tab only includes the main riff and the solo of the song. I find it sounds right 
this is quite easy, and you just need to practise to follow the song ;-). Enjoy!

******************************************************************************************

That's the main riff, which is played at the intro and inter/verses.

e------------------------------------------------------------]
B------------------------------------------------------------]
G-------6-4-6---------6-4-6---------6-6-4---------4-4-2------]
D--4-4-----------------------2-2-2---------0-0-0-------------]
A--------------0-0-0-----------------------------------------]
E------------------------------------------------------------]

During the verses you can hear this slide:

D--7\4-----]

Solo

Part1

e--------5---------------5---------------5----------5-----------5----5-7-9-7-5-7-5-----]
B--5--7-----7---7--5--7-----7---7--5--7-----7--5--7----7--5--7----7-----------------7--]
G--------------------------------------------------------------------------------------]
D--------------------------------------------------------------------------------------]
A--------------------------------------------------------------------------------------]
E--------------------------------------------------------------------------------------]

e-------5-----------5----5-7-9-7-5-7-5-----]
B--5--7----7--5--7----7-----------------7--]
G------------------------------------------]
D------------------------------------------]
A------------------------------------------]
E------------------------------------------]

Part2 (louder)

e-------5-----------5----5-7-9-7-5-7-5-----]
B--5--7----7--5--7----7-----------------7--]
G------------------------------------------]
D------------------------------------------]
A------------------------------------------]
E------------------------------------------]

e-------5-----------5----5-7-9-7-5-7-5-----5-]
B--5--7----7--5--7----7-----------------7----]
G--------------------------------------------]
D--------------------------------------------]
A--------------------------------------------]
E--------------------------------------------]

The last note of the solo: you have to let it ring a long time.


****************************************************************************
Добавлено: 30.05.2012
Другие материалы по этой песне:

Страница создана 26.04.2012
http://primanota.ru/kill-the-young/origin-of-illness-chords.htm
Привет, Гость.
Предлагаем пройти революционный курс по гитаре.
Подарок от PrimaNota.Ru, забирай!