PrimaNota.ru - самый крупный в мире бесплатный архив песенных текстов, аккордов, табулатур и нот


Kill The Alarm - Never Come Around - таба, видео

Регистрация Запомнить меня
Войти через:  Facebook Google Twitter Vk Yandex Mail.ru

Kill The Alarm - Never Come Around - таба, видео

Печатать
Просмотров: 110
http://www.killthealarm.com

Hey I love this band but couldn't find any tabs anywhere.
I tried tabbing this by ear but it's my first tab ever and
I'm not so good at getting things by ear but Have a go :)

If anyone can finish it off or improve then please do :D

e|---------------------------------------------------------|
B|---------------------------------------------------------|
G|------6~---6~-----6~---6~-----6~---6~-----6~---6~--------|
D|---------------------------------------------------------|
A|--------------------------5-5----5----5-5----5-----------|
E|-5-5----5----5-5-----5-----------------------------------|

then ring out:

e|--------|
B|----5---|
G|----6---|
D|----7---|
A|----7---|
E|----5---|

High bit is something like (listen for timing):

e|-------------14----|
B|----14-------14----|
G|----14-------14----|
D|----14-------------|
A|-------------------|
E|-------------------|

Palm muted bit is:

e|---------------------------------------------------------|
B|---------------------------------------------------------|
G|------------------------------------9999-7777-6666-4444--|
D|---4----------7----------4----------xxxx-xxxx-xxxx-xxxx--|
A|---4--(x16)---7--(x16)---4--(x16)---7777-5555-4444-2222--|
E|---2----------5----------2-------------------------------|

Chorus

e|-----------------------------|
B|----5---7---5----------------|
G|----6---7---6------------7~--|
D|----7---7---7---7/9-999-7~---|
A|----7---5---7---7/9-999-5~---|
E|----5-------5---5/7-777------|
Добавлено: 16.05.2012
Другие материалы по этой песне:
  • Аккорды и текст

Страница создана 16.05.2012
http://primanota.ru/kill-the-alarm/never-come-around-chords.htm
Привет, Гость.
Предлагаем пройти революционный курс по гитаре.
Подарок от PrimaNota.Ru, забирай!