PrimaNota.ru - самый крупный в мире бесплатный архив песенных текстов, аккордов, табулатур и нот


Kill Kenada - Red And Black - таба, видео

Регистрация Запомнить меня
Войти через:  Facebook Google Twitter Vk Yandex Mail.ru

Kill Kenada - Red And Black - таба, видео

Печатать
Просмотров: 105
Author/Artist: Kill Kenada (www.killkenada.co.uk)
Title: Red & Black
Tabber: Andrew Biles

I've updated this a couple of times now after looking over it all
so I think it's pretty much spot on, so see what you think.  (lyrics at the bottom)
Drop D tuning

|-------------------------|--------------------------------------|-14----------
|-------------------------|--------------------------15----------|----12-14^---
|-------------------------|-------14^----------13/14----14----12-|-------------
|-------------------------|----16-----16----16-------------16----|-------------
|-------------------------|-14-----------14----------------------|-------------
|-5*-5*-5*-5*-5*-5*-5*-5*-|--------------------------------------|-------------
  Intro (harmonics)    x8                                     x4 

----------|-12-----------------|-14-----------------|-12-----------------|----
-12-14-12-|----12-14^-12-14-12-|----12-14^-12-14-12-|----12-14^-12-14-12-|----
----------|--------------------|--------------------|--------------------|----
----------|--------------------|--------------------|--------------------|----
----------|--------------------|--------------------|--------------------|-14-
----------|--------------------|--------------------|--------------------|----
       x2                   x2                   x2                   x2   ^vibrato


|-----------------------|-------------|-------------------------|--------------
|-----------------------|-------------|-------------------------|--------------
|-----------------------|-------------|-------------------------|--------------
|-------------------1-1-|-------------|-4-4-4-4-4-5-5-5-5-8-x-8-|-4-4-4-4-4-5--
|-2-2-2-0-2-3-3-3-3-----|-2-2-2-0-2-3-|-2-2-2-0-2-3-3-3-3-6-x-6-|-2-2-2-0-2-3--
|-----------------------|-------------|-------------------------|--------------
                     x3            x1   clean x4 distorted x1 

-------------|-------------------------|-------------------------|
-------------|-------------------------|-------------------------|
-------------|-------------------------|-------------------------|
-5-5-5-2-2-5-|-4-4-4-4-4-5-5-5-5-8-x-6-|-4-4-4-4-4-5-5-5-5-2-2-5-|
-3-3-3-0-0-3-|-2-2-2-0-2-3-3-3-3-6-x-6-|-2-2-2-0-2-3-3-3-3-0-0-3-|
-------------|-------------------------|-------------------------|
          x1                        x1                        x1    

------------------------------------------
------------------------------------------
------------------------------------------
--7-7-7-7----7-7-7-7----7-7-7-7---7-7-7-7-
--0-0-0-0----0-0-0-0----0-0-0-0---0-0-0-0-
--0-0-0-0----0-0-0-0----0-0-0-0---0-0-0-0-
 "take of your shades"  

|--------------------------
|--------------------------
|-------0------------0-----
|-0-0-----0----4-4-----4---
|-0---0-----0--4---4-----4-
|-0------------------------

|---------------------------
|---------------------------
|---------------------------
|---------------------------
|-2-2-2-0-2-2-2-2-0-2-3-2-0-
|---------------------------

|-------------------------7--7----------------------------
|-------------------------x--x----------------------------
|-5-5-5-------4-4-4-------4--4--5-5-5-------4-4-4-------7-
|-------------------------------------------------------x-
|-------5-5-5-------5-5-5-------------5-5-5-------5-5-5-5-
|---------------------------------------------------------

|---------------------------------|---------
|---------------------------------|---------
|---------------------------------|---------
|---------------------------------|---------
|-3-3-3-------2-2-2-------3-0-3-0-|-3-----2-
|-------0-0-0-------0-0-0-3-0-3-0-|----0----
 Outro

______________________________
Lyrics (www.killkenada.tk):

blood and whisky spread over the canvas 
frida kahlo can't deny the justice 
your paper work has got me going throwing ice cubes 
sink your teeth to polaroid destraction 
got a feeling you have got a cigerratte'A 
found some cocaine - offer you a cigeratte-a 
mouth to mouth i know you got a ciggeratte'a 
bloody mary's drowning in a yuppie culture 

take off your shades 
take off your shades 
take off your shades 
take off your shades 

stripping down the cable stems of the monster squad (squad!) 

fight the feeling, so right about it 
county christos got us nicknamed for pleasure (i think) 
fight the meaning, so right about it 

no shadow 
no shadow 
no shadow 
no shadow 

red and black is splashing on the canvas baby 
red and black and carving like an eighties singer 
red and black is splashing on the canvas baby 

strip, the wire.. 
cable, stems, of.. 
the monster, squad.. 
!"£!$. 

!"£!"$, 
strip the wire.. 
cables, of.. 
the, monster, squad..
Добавлено: 22.04.2012
Другие материалы по этой песне:
  • Аккорды и текст

Страница создана 22.04.2012
http://primanota.ru/kill-kenada/red-and-black-chords.htm
Привет, Гость.
Предлагаем пройти революционный курс по гитаре.
Подарок от PrimaNota.Ru, забирай!