PrimaNota.ru - самый крупный в мире бесплатный архив песенных текстов, аккордов, табулатур и нот


Kill Hannah - Nerve Gas - текст песни, таба, видео

Регистрация Запомнить меня
Войти через:  Facebook Google Twitter Vk Yandex Mail.ru

Kill Hannah - Nerve Gas - текст песни, таба, видео

Печатать
Просмотров: 124
----------------------------------------------------------------------------
                           NERVE GAS - Kill Hannah
----------------------------------------------------------------------------
Tabbed by:jai boi
Email:jaison31190@yahoo.com

Tuning:Standard




INTRO:

(Guitar 1)
e|----------------------------|           
B|----------------------------|           
G|-6-------4-------2----------| Repeat  
D|-6-(x4)--4-(x4)--2-(x8)-----|  x6   
A|-4-------2-------0----------|           
E|----------------------------|       


e|----------------------------------------------------|           
B|----------------------------------------------------|           
G|-6~------4~------2--------9--------2--------9-------|  Repeat 
D|-6~------4~------2-(x3)---9-(x5)---2-(x3)---9-(x5)--|   x2  
A|-4~------2~------0--------7--------0--------7-------|   
E|----------------------------------------------------|    


(Guitar 2)
e|--12(x3)--14(x4)--17(x9)--12(x3)--14(x4)--17(x9)----|
B|----------------------------------------------------|
G|----------------------------------------------------|
D|----------------------------------------------------|
A|----------------------------------------------------|
E|----------------------------------------------------|

e|--19(x3)--17(x4)--14(x4)--17(x5)--19(x3)--17(x4)--14(x4)--17(x5)---|
B|-------------------------------------------------------------------|
G|-------------------------------------------------------------------|
D|-------------------------------------------------------------------|
A|-------------------------------------------------------------------|
E|-------------------------------------------------------------------|

e|--12-14-12-14-12-14-14-16-14-16-19-16-14-12----12--------12--------|
B|--------------------------------------------10----10--10----10-----|
G|-------------------------------------------------------------------|Repeat
D|-------------------------------------------------------------------|  x2
A|-------------------------------------------------------------------|
E|-------------------------------------------------------------------|



VERSE:

Standing here in the ballroom as the dancers twirling
Everything to the marching drums
And lying here in your yard alone as all the old war pilots have gone
Its how this little bird heart got so cracked 

(Guitar 1)
e|---------------------------------------|
B|----------4b(x20)----------------------|
G|---------------------------------------|
D|---------------------------------------|
A|---------------------------------------|
E|---------------------------------------|


(Guitar 2)
e|-------------------------------------| palm muted       
B|-------------------------------------|                  
G|-9--------4--------6--------2--------|  Repeat          
D|-9-(x16)--4-(x16)--6-(x16)--2-(x16)--|   x2             
A|-7--------2--------4--------0--------|                  
E|-------------------------------------|                  
   ^
  this part starts 
along with the singing



But they'll sleep deep tonight
Oh yeah one thing for sure
Well we'll just be sleep walking these dirty streets

(Guitar 2)
e|-----------------------------|
B|-----------------------------|
G|-4--------2--------4---------|
D|-4-(x16)--2-(x16)--4-(x9)----|
A|-2--------0--------2---------|
E|-----------------------------|



CHORUS:

Yeah better eject 
Coz that's how we are
Nerve gas over us
Just leave that nerve gas on

(Guitar 1)
e|----------------------------|           
B|----------------------------|           
G|-6-------4-------2----------| Repeat  
D|-6-(x4)--4-(x4)--2-(x8)-----|  x2  
A|-4-------2-------0----------|           
E|----------------------------| 

e|----------------------------------------------------|           
B|----------------------------------------------------|           
G|-6~------4~------2--------9--------2--------9-------|  Repeat 
D|-6~------4~------2-(x3)---9-(x5)---2-(x3)---9-(x5)--|   x2  
A|-4~------2~------0--------7--------0--------7-------|   
E|----------------------------------------------------|


(Guitar 2)
e|--12(x3)--14(x4)--17(x9)--12(x3)--14(x4)--17(x9)----|
B|----------------------------------------------------|
G|----------------------------------------------------|
D|----------------------------------------------------|
A|----------------------------------------------------|
E|----------------------------------------------------|

e|--12-14-12-14-12-14-14-16-14-16-19-16-14-12----12--------12--------|
B|--------------------------------------------10----10--10----10-----|
G|-------------------------------------------------------------------|Repeat
D|-------------------------------------------------------------------|  x2
A|-------------------------------------------------------------------|
E|-------------------------------------------------------------------|

(Guitar 1 and Guitar 2)
e|----------------------------------------------------|           
B|----------------------------------------------------|           
G|-6-------4-------2--------9--------2--------9-------|
D|-6-(x8)--4-(x8)--2-(x3)---9-(x5)---2-(x3)---9-(x2)--|  
A|-4-------2-------0--------7--------0--------7-------|   
E|----------------------------------------------------|
  

VERSE:

Lying here in your yard alone as all the paratroopers dropped
It's how this little bird heart got so fucked 

(Guitar 1)
e|---------------------------------------|
B|----------4b(x20)----------------------|
G|---------------------------------------|
D|---------------------------------------|
A|---------------------------------------|
E|---------------------------------------|

(Guitar 2)
e|-------------------------------------| palm muted       
B|-------------------------------------|                  
G|-9--------4--------6--------2~-------|  Repeat          
D|-9-(x16)--4-(x16)--6-(x16)--2~----xx-|   x2             
A|-7--------2--------4--------0~----xx-|                  
E|----------------------------------xx-|                  
   ^
  this part starts 
along with the singing



I won't sleep deep tonight 
oh no i can for sure
I can't sleep deep tonight

(Guitar 1 and Guitar 2)
e|----------------------------------------------------------|
B|----------------------------------------------------------|
G|-4-4-4-4-4-4-4-4-2-2-2-2-2-2-2-2-4-4-4-4-4-4-4-4-4-4-4-4--|
D|-4-4-4-4-4-4-4-4-2-2-2-2-2-2-2-2-4-4-4-4-4-4-4-4-4-4-4-4--|
A|-2-2-2-2-2-2-2-2-0-0-0-0-0-0-0-0-2-2-2-2-2-2-2-2-2-2-2-2--|
E|----------------------------------------------------------|
   " " " " " " " " " " " " " " " " " " " "


CHORUS:

(Guitar 1)
e|----------------------------|           
B|----------------------------|           
G|-6-------4-------2----------| Repeat  
D|-6-(x4)--4-(x4)--2-(x8)-----|  x4  
A|-4-------2-------0----------|           
E|----------------------------| 

Coz that's how we are
Nerve gas over us
Just leave that nerve gas on

e|----------------------------------------------------|           
B|----------------------------------------------------|           
G|-6~------4~------2--------9--------2--------9-------|  Repeat 
D|-6~------4~------2-(x3)---9-(x5)---2-(x3)---9-(x5)--|   x2  
A|-4~------2~------0--------7--------0--------7-------|   
E|----------------------------------------------------|


(Guitar 2)
e|--12(x3)--14(x4)--17(x9)--12(x3)--14(x4)--17(x9)----|
B|----------------------------------------------------|
G|----------------------------------------------------|
D|----------------------------------------------------|
A|----------------------------------------------------|
E|----------------------------------------------------|

e|--19(x3)--17(x4)--14(x4)--17(x5)--19(x3)--17(x4)--14(x4)--17(x5)---|
B|-------------------------------------------------------------------|
G|-------------------------------------------------------------------|
D|-------------------------------------------------------------------|
A|-------------------------------------------------------------------|
E|-------------------------------------------------------------------|

e|--12-14-12-14-12-14-14-16-14-16-19-16-14-12----12--------12--------|
B|--------------------------------------------10----10--10----10-----|
G|-------------------------------------------------------------------|Repeat
D|-------------------------------------------------------------------|  x2
A|-------------------------------------------------------------------|
E|-------------------------------------------------------------------|


I won't sleep deep tonight 
oh no i can for sure
I can't sleep deep tonight
Why can't we just kill all? ooooooh....

(Guitar 1 and Guitar 2)
e|-------------------------------------|
B|-------------------------------------|
G|-4--------2--------4--------2~-------|
D|-4-(x16)--2-(x16)--4-(x16)--2~---2~--|
A|-2--------0--------2--------0~---2~--|
E|---------------------------------0~--|





KILL HANNAH - NERVE GAS


| /  slide up
| \  slide down
| h  hammer-on
| p  pull-off
| ~  vibrato
| +  harmonic
| x  Mute note
  "  fret mute
============================================================================
Добавлено: 03.05.2012
Другие материалы по этой песне:
  • Аккорды и текст

Страница создана 05.04.2012
http://primanota.ru/kill-hannah/nerve-gas-chords.htm
Привет, Гость.
Предлагаем пройти революционный курс по гитаре.
Подарок от PrimaNota.Ru, забирай!