PrimaNota.ru - самый крупный в мире бесплатный архив песенных текстов, аккордов, табулатур и нот


Kill Hannah - Love You To Death - текст песни, таба, бас-таба, видео

Регистрация Запомнить меня
Войти через:  Facebook Google Twitter Vk Yandex Mail.ru

Kill Hannah - Love You To Death - текст песни, таба, бас-таба, видео

Печатать
Просмотров: 212
Уроки эстрадного вокала в Санкт-Петербурге
{chorus}
e|----------------------------------------------------------|
b|----------------------------------------------------------|
g|---7--7--7--7----6--6--6--6----4--4--4--4-----------------|
d|---X--X--X--X----X--X--X--X----X--X--X--X----7--7--7--7---|  x4
a|---5--5--5--5----4--4--4--4----2--2--2--2----7--7--7--7---|
D|---------------------------------------------7--7--7--7---|

verse 1
e|----------------------------------------------------------|
b|----------------------------------------------------------|
g|----------------------------------------------------------|
d|--7-7-7-7-7-7-7-7-7-7-7-7-7-7-7-7-7-7-7-7-7-7-7-----------|
a|--7-7-7-7-7-7-7-7-7-7-7-7-7-7-7-7-7-7-7-7-7-7-7-----------|
D|--7-7-7-7-7-7-7-7-7-7-7-7-7-7-7-7-7-7-7-7-7-7-7-----------|
      . . . . .   . . . . .   . . . . .   . .       
 


e|----------------------------------------------------------|
b|----------------------------------------------------------|
g|----------------------------------------------------------|
d|--4-4-4-4-4-4-4-4-4-4-4-4-4-4-4-4-4-4-4-4-4-4-4-----------|
a|--4-4-4-4-4-4-4-4-4-4-4-4-4-4-4-4-4-4-4-4-4-4-4-----------|
D|--4-4-4-4-4-4-4-4-4-4-4-4-4-4-4-4-4-4-4-4-4-4-4-----------|
      . . . . .   . . . . .   . . . . .   . .       
 

{chorus}

{verse}

{chorus}


e|---------------------------|
b|---------------------------|
g|---------------------------|
d|--7-7-7-7------------------|
a|--7-7-7-7------------------|
D|--7-7-7-7------------------|
    . .
                                       x3
e|---------------------------|
b|---------------------------|
g|---------------------------|
d|--4-4-4-4------------------|
a|--4-4-4-4------------------|
D|--4-4-4-4------------------|
    . .

{chorus}
Добавлено: 17.06.2012
Другие материалы по этой песне:
  • Аккорды и текст

Страница создана 26.02.2012
http://primanota.ru/kill-hannah/love-you-to-death-chords.htm
Привет, Гость.
Предлагаем пройти революционный курс по гитаре.
Подарок от PrimaNota.Ru, забирай!