PrimaNota.ru - самый крупный в мире бесплатный архив песенных текстов, аккордов, табулатур и нот


Kill Hannah - Home - таба, видео

Регистрация Запомнить меня
Войти через:  Facebook Google Twitter Vk Yandex Mail.ru

Kill Hannah - Home - таба, видео

Печатать
Просмотров: 111
Kill Hannah - Home

I hope this tab is understandable! Watch out because there are some differences among 
verses and choruses,
even if they sound quite the same - have fun with playing!

- and don't forget to buy yourself a delay and a "wah-wah" !!!

EADGBE


Intro

Guitar 1

Pick the E (12th fret E String) before the Intro actually starts
Repeat this throughout the whole Intro (At the end hit the last note another time and 
down to nowhere)

|12-12-12-8-8-8------12-12-12-8-8-8----------------|
|---------------8-8-----------------8-8------------|
|--------------------------------------------------|
|--------------------------------------------------|
|--------------------------------------------------|
|--------------------------------------------------|

Guitar 2

The first time it's just A and F - for the strumming, listen to the song
The guitar accents in the same way as the drums

|--------------------------------------------------|
|--------------------------------------------------|
|--------------------------------------------------|
|7-7-7--7-7-7--7-7-----3-3-3--3-3-3--3-3-----------|
|7-7-7--7-7-7--7-7-x4--3-3-3--3-3-3--3-3-x4--------|
|5-5-5--5-5-5--5-5-----1-1-1--1-1-1--1-1-----------|

The second time you change the chord progression slightly at the end - the rhythm stays 
same besides
the parts at the end. I tried to show it in the tab below.

|--------------------------------------------------------------------------------|
|--------------------------------------------------------------------------------|
|--------------------------------------------------------------------------------|
|7-7-7--7-7-7--7-7----9-9-9-9-10-10-10-10---3-3-3--3-3-3--3-3----3-3-3-3-3-5-5-5-|
|7-7-7--7-7-7--7-7-x3-x-x-x-x-x--x--x--x----3-3-3--3-3-3--3-3-x3-3-3-3-3-3-5-5-5-|
|5-5-5--5-5-5--5-5----7-7-7-7-8--8--8--8----1-1-1--1-1-1--1-1----1-1-1-1-1-3-3-3-|

Verse 1

It's mostly the bass playin, but the rythm guitar comes in from time to time.
When you hit the last chord A, first start quiet and muted and increase your strumming 
- crescendo.

Guitar 1

|--------------------------------------------------------------------------------|
|--------------------------------------------------------------------------------|
|-(muted)-----------------------(muted)------------------------------------------|
|--7-7-7---/3----5--7--10--7-----7-7-7----/3----7-7-7-7-7-7-7-7------------------|
|--7-7-7---/3----5--7--10--7-----7-7-7----/3----7-7-7-7-7-7-7-7------------------|
|--5-5-5---/1----3--5--8---5-----5-5-5----/1----5-5-5-5-5-5-5-5------------------|

Guitar 2

played with a lot of delay

1st Fill-in

|--------------------------------------------------------------------------------|
|-13-13-13-13/10/13/15/12--13/10/12/5/8------------------------------------------|
|--------------------------------------------------------------------------------|
|--------------------------------------------------------------------------------|
|--------------------------------------------------------------------------------|
|--------------------------------------------------------------------------------|

2nd Fill-in

|--------------------------------------------------------------------------------|
|-8--8--8--10--10--12--12--12--13-13-13-15-15-15-15--15/17-17--------------------|
|--------------------------------------------------------------------------------|
|--------------------------------------------------------------------------------|
|--------------------------------------------------------------------------------|
|--------------------------------------------------------------------------------|

Chorus 1

Guitar 1

Repeat this throughout the whole Chorus - same as the Intro

|12-12-12-8-8-8------12-12-12-8-8-8----------------|
|---------------8-8-----------------8-8------------|
|--------------------------------------------------|
|--------------------------------------------------|
|--------------------------------------------------|
|--------------------------------------------------|

Guitar 2

Mostly like the Intro but there are some slight changes in the chord progression

|--------------------------------------------------------------|
|--------------------------------------------------------------|
|--------------------------------------------------------------|
|7-7-7--7-7-7--7-7-----3-3-3--3-3-3--3-3-----3-3-3-3-3-5-5-5---|
|7-7-7--7-7-7--7-7-x4--3-3-3--3-3-3--3-3-x3--3-3-3-3-3-5-5-5---|
|5-5-5--5-5-5--5-5-----1-1-1--1-1-1--1-1-----1-1-1-1-1-3-3-3---|


|---------------------------------------------------------------------------------------------------|
|---------------------------------------------------------------------------------------------------|
|---------------------------------------------------------------------------------------------------|
|7-7-7--7-7-7--7-7----9-9-9--9-9-9--9-9--1010101012-12-12-12---3-3-3--3-3-3--3-3----3-3-3-3-3-5-5-5-|
|7-7-7--7-7-7--7-7-x2-9-9-9--9-9-9--9-9--x-x-x-x-x--x--x--x----3-3-3--3-3-3--3-3-x3-3-3-3-3-3-5-5-5-|
|5-5-5--5-5-5--5-5----7-7-7--7-7-7--7-7--8-8-8-8-10-10-10-10---1-1-1--1-1-1--1-1----1-1-1-1-1-3-3-3-|

Verse 2

Guitar 1

|--------------------------------------------------------------------------------|
|--------------------------------------------------------------------------------|
|-(muted)-----------------------(muted)------------------------------------------|
|--7-7-7---/3----5--7--10--7-----7-7-7----2-2-2-2-2-2-2-2-2-3-3-3-3-5-5-5-5------|
|--7-7-7---/3----5--7--10--7-----7-7-7----2-2-2-2-2-2-2-2-2-3-3-3-3-5-5-5-5------|
|--5-5-5---/1----3--5--8---5-----5-5-5----0-0-0-0-0-0-0-0-0-1-1-1-1-3-3-3-3------|


Guitar 2

1st Fill-In   -  double the strumming speed at the end in both Fill-Ins

|---------------------------------------------------------------------------------|
|---10---10----13--13--13--13--13--13--13--13--12-12-12-12-13-13-13-13-12121212-10|
|-9----9--------------------------------------------------------------------------|
|--------------10--10--10--10--10--10--10--10--9--9--9--9--10-10-10-10-9-9-9-9--7-|
|-(quiet)-------------------------------------------------------------------------|
|---------------------------------------------------------------------------------|

2nd Fill-In

|--------------------------------------------------------------------------------|
|-12--12--12--12--12--12--12--12--13-13-13-13-13-13-13-13-15-15-15-15-15-15-15-15|
|--------------------------------------------------------------------------------|
|-9---9---9---9---9---9---9---9---10-10-10-10-10-10-10-10-12-12-12-12-12-12-12-12|
|--------------------------------------------------------------------------------|
|--------------------------------------------------------------------------------|

Chorus 2

Guitar 1

Repeat this throughout the whole Chorus - same as in the first one

|12-12-12-8-8-8------12-12-12-8-8-8----------------|
|---------------8-8-----------------8-8------------|
|--------------------------------------------------|
|--------------------------------------------------|
|--------------------------------------------------|
|--------------------------------------------------|

Guitar 2

Mostly like the first one but there are some slight changes in the chord progression

|---------------------------------------------------------------------------------------------------|
|---------------------------------------------------------------------------------------------------|
|---------------------------------------------------------------------------------------------------|
|7-7-7--7-7-7--7-7----9-9-9--9-9-9--9-9--1010101012-12-12-12---3-3-3--3-3-3--3-3----5-5-5-5-5-5-5-5-|
|7-7-7--7-7-7--7-7-x2-9-9-9--9-9-9--9-9--x-x-x-x-x--x--x--x----3-3-3--3-3-3--3-3-x3-5-5-5-5-5-5-5-5-|
|5-5-5--5-5-5--5-5----7-7-7--7-7-7--7-7--8-8-8-8-10-10-10-10---1-1-1--1-1-1--1-1----3-3-3-3-3-3-3-3-|


|---------------------------------------------------------------------------------------------------|
|---------------------------------------------------------------------------------------------------|
|---------------------------------------------------------------------------------------------------|
|7-7-7-7----9-9-9-9----10101010----12-12-12-12-----3-3-3--3-3-3--3-3----5-5-5-5-3-5-5-5-------------|
|7-7-7-7-x2-9-9-9-9-x2-10101010-x2-12-12-12-12-x2--3-3-3--3-3-3--3-3-x2-5-5-5-5-5-5-5-5--(break)----|
|5-5-5-5----7-7-7-7----8-8-8-8-----10-10-10-10-----1-1-1--1-1-1--1-1----3-3-3-3-3-3-3-3-------------|

Solo

Guitar 1

|---------------------------------------------------------------------------------------------|
|---------------------------------------------------------------------------------------------|
|---------------------------------------------------------------------------------------------|
|-7-7-7-7-7-7-7-7----2-2-2-2-2-2-2-2----7-7-7-7-7-7-7-7----2-2-2-2-2-2-2-2-------3------------|
|-7-7-7-7-7-7-7-7 x4-2-2-2-2-2-2-2-2-x2-7-7-7-7-7-7-7-7-x4-2-2-2-2-2-2-2-2-x4----3------------|
|-5-5-5-5-5-5-5-5----0-0-0-0-0-0-0-0----5-5-5-5-5-5-5-5----0-0-0-0-0-0-0-0-------1------------|

Guitar 2

Pick slide before he starts playing
Bend the E (9th fret G String) slightly throughout the strumming
For the exact strumming and "wah-wah" rythm listen to the song - It's quite simple, 
eighth

|---------------------------------------------------------------------------------------------|
|---------------------------------------------------------------------------------------------|
|-------10-10-10-9-12-12/14-14-14-14--9/10-10-10/12-12/14--9-9-9-9-9-9-9-9b10-9-9h10p9-9------|
|-12b14---------------------------------------------------------------------------------------|
|---------------------------------------------------------------------------------------------|
|---------------------------------------------------------------------------------------------|

|---------------------------------------------------------------------------------------------|
|----------------------------------13/10-10-13-13-13-13-x2--15-15-15-15-x2--17-17-17-17-x2--18|
|-7-7-9/10-10-10-12/14-14 -9/10-10------------------------------------------------------------|
|---------------------------------------------------------------------------------------------|
|---------------------------------------------------------------------------------------------|
|---------------------------------------------------------------------------------------------|

Outro

Guitar 1

|12--8-------12--8---------------------------------|
|--------8----------8------------------------------|
|--------------------------------------------------|
|--------------------------------------------------|
|--------------------------------------------------|
|--------------------------------------------------|

Guitar 2

just strum eighth muted and increase your volume throughout the part - crescendo

|--------------------------------------------------|
|--------------------------------------------------|
|--------------------------------------------------|
|3-3-3--3-3-3--3-3---------------------------------|
|3-3-3--3-3-3--3-3---------------------------------|
|1-1-1--1-1-1--1-1---------------------------------|
Добавлено: 29.05.2012
Другие материалы по этой песне:
  • Аккорды и текст

Страница создана 29.05.2012
http://primanota.ru/kill-hannah/home-chords.htm
Привет, Гость.
Предлагаем пройти революционный курс по гитаре.
Подарок от PrimaNota.Ru, забирай!