PrimaNota.ru - самый крупный в мире бесплатный архив песенных текстов, аккордов, табулатур и нот


Kill Hannah - Crazy Angel - текст песни, таба, бас-таба, видео

Регистрация Запомнить меня
Войти через:  Facebook Google Twitter Vk Yandex Mail.ru

Kill Hannah - Crazy Angel - текст песни, таба, бас-таба, видео

Печатать
Просмотров: 146
Intro:

Guitar one
e|---------------------------------------------------------------------|
B|---------------------------------------------------------------------|
G|--6-6-6-6-6-6-6-6-9-9-9-9-9-9-9-9-4-4-4-4-4-4-4-4-4-4-4-4------------|
D|--6-6-6-6-6-6-6-6-9-9-9-9-9-9-9-9-4-4-4-4-4-4-4-4-4-4-4-4-6-6-6-6----|x2
A|--4-4-4-4-4-4-4-4-7-7-7-7-7-7-7-7-2-2-2-2-2-2-2-2-2-2-2-2-6-6-6-6----|
E|----------------------------------------------------------4-4-4-4----|

Guitar two
e|---9---7-9---9-7-9---9-7-9-----9------9-7-9---9-7-9---9-7-9------9-----|
B|-----9-----9-------7----------------9-------9-------7------------------|
G|---------------------------8-----9---------------------------8------9--|
D|-----------------------------------------------------------------------|x2
A|-----------------------------------------------------------------------|
E|-----------------------------------------------------------------------|

Verse:
e|-------------------------------------------------------------------------|
B|-------------------------------------------------------------------------|
G|--6~---------------------------------------------------------------------|
D|--6~---------------------------------------------------------------------|
A|--4~---------------------------------------------------------------------|
E|-------------------------------------------------------------------------|

e|-------------------------------------------------------------------------|
B|-5555555555555555777777777777777799999999999999997777777777777777--------|
G|-xxxxxxxxxxxxxxxxxxxxxxxxxxxxxxxxxxxxxxxxxxxxxxxxxxxxxxxxxxxxxxxx--------|
D|-2222222222222222444444444444444466666666666666664444444444444444--------|
A|-------------------------------------------------------------------------|
E|-------------------------------------------------------------------------|


Chorus
Guitar one
e|----------------------------------------------------------------------|
B|----------------------------------------------------------------------|
G|--6-6-6-6-6-6-6-6-9-9-9-9-9-9-9-9-4-4-4-4-4-4-4-4-4-4-4-4-------------|x2
D|--6-6-6-6-6-6-6-6-9-9-9-9-9-9-9-9-4-4-4-4-4-4-4-4-4-4-4-4-6-6-6-6-----|
A|--4-4-4-4-4-4-4-4-7-7-7-7-7-7-7-7-2-2-2-2-2-2-2-2-2-2-2-2-6-6-6-6-----|
E|----------------------------------------------------------4-4-4-4-----|

Guitar two
e|---9---7-9---9-7-9---9-7-9-----9------9-7-9---9-7-9---9-7-9------9-----|
B|-----9-----9-------7----------------9-------9-------7------------------|
G|---------------------------8-----9---------------------------8------9--|
D|-----------------------------------------------------------------------|x2
A|-----------------------------------------------------------------------|
E|-----------------------------------------------------------------------|

Verse:
e|-------------------------------------------------------------------------|
B|-------------------------------------------------------------------------|
G|--6~---------------------------------------------------------------------|
D|--6~---------------------------------------------------------------------|
A|--4~---------------------------------------------------------------------|
E|-------------------------------------------------------------------------|

Guitar one
e|-------------------------------------------------------------------------|
B|-5555555555555555777777777777777799999999999999997777777777777777--------|
G|-xxxxxxxxxxxxxxxxxxxxxxxxxxxxxxxxxxxxxxxxxxxxxxxxxxxxxxxxxxxxxxxx--------|
D|-2222222222222222444444444444444466666666666666664444444444444444--------|
A|-------------------------------------------------------------------------|
E|-------------------------------------------------------------------------|

guitar two
e|-------------------------------------------------------------------------|
B|-------------------------------------------------------------------------|
G|-2222222222222222444444444444444466666666666666664444444444444444--------|
D|-2222222222222222444444444444444466666666666666664444444444444444--------|
A|-0000000000000000222222222222222244444444444444442222222222222222--------|
E|-------------------------------------------------------------------------|

Chorus
Guitar one
e|---------------------------------------------------------------------|
B|---------------------------------------------------------------------|
G|--6-6-6-6-6-6-6-6-9-9-9-9-9-9-9-9-4-4-4-4-4-4-4-4-4-4-4-4------------|
D|--6-6-6-6-6-6-6-6-9-9-9-9-9-9-9-9-4-4-4-4-4-4-4-4-4-4-4-4-6-6-6-6----|x2
A|--4-4-4-4-4-4-4-4-7-7-7-7-7-7-7-7-2-2-2-2-2-2-2-2-2-2-2-2-6-6-6-6----|
E|----------------------------------------------------------4-4-4-4----|

Guitar two
e|---9---7-9---9-7-9---9-7-9-----9------9-7-9---9-7-9---9-7-9------9-----|
B|-----9-----9-------7----------------9-------9-------7------------------|
G|---------------------------8-----9---------------------------8------9--|
D|-----------------------------------------------------------------------|x2
A|-----------------------------------------------------------------------|
E|-----------------------------------------------------------------------|

Bridge
e|---------------------------------------------------------------------|
B|---------------------------------------------------------------------|
G|-22222222222222224444444444444444------------------------------------|
D|-2222222222222222444444444444444444444444666666667777777777777777----|x2
A|-0000000000000000222222222222222244444444666666667777777777777777----|
E|---------------------------------22222222444444445555555555555555----|

e|-------------------------------------------------------------------------|
B|-------------------------------------------------------------------------|
G|--6~---------------------------------------------------------------------|
D|--6~---------------------------------------------------------------------|
A|--4~---------------------------------------------------------------------|
E|-------------------------------------------------------------------------|

e|-------------------------------------------------------------------------|
B|-5555555555555555777777777777777799999999999999997777777777777777--------|
G|-xxxxxxxxxxxxxxxxxxxxxxxxxxxxxxxxxxxxxxxxxxxxxxxxxxxxxxxxxxxxxxxx--------|
D|-2222222222222222444444444444444466666666666666664444444444444444--------|
A|-------------------------------------------------------------------------|
E|-------------------------------------------------------------------------|

e|---------------------------------------------------------------------|
B|---------------------------------------------------------------------|
G|-22222222222222224444444444444444------------------------------------|
D|-2222222222222222444444444444444444444444666666667777777777777777----|x2
A|-0000000000000000222222222222222244444444666666667777777777777777----|
E|---------------------------------22222222444444445555555555555555----|

e|------------------------------------|
B|------------------------------------|
G|-22222222222222224444444444444444---|
D|-22222222222222224444444444444444---|x2
A|-00000000000000002222222222222222---|
E|------------------------------------|

Chorus
Guitar one
e|----------------------------------------------------------------------|
B|----------------------------------------------------------------------|
G|--6-6-6-6-6-6-6-6-9-9-9-9-9-9-9-9-4-4-4-4-4-4-4-4-4-4-4-4-------------|x4
D|--6-6-6-6-6-6-6-6-9-9-9-9-9-9-9-9-4-4-4-4-4-4-4-4-4-4-4-4-6-6-6-6-----|
A|--4-4-4-4-4-4-4-4-7-7-7-7-7-7-7-7-2-2-2-2-2-2-2-2-2-2-2-2-6-6-6-6-----|
E|----------------------------------------------------------4-4-4-4-----|

Guitar two
e|---9---7-9---9-7-9---9-7-9-----9------9-7-9---9-7-9---9-7-9------9-----|
B|-----9-----9-------7----------------9-------9-------7------------------|
G|---------------------------8-----9---------------------------8------9--|
D|-----------------------------------------------------------------------|x4
A|-----------------------------------------------------------------------|
E|-----------------------------------------------------------------------|

e|-------------------------------------------------------------------------|
B|-------------------------------------------------------------------------|
G|--6~---------------------------------------------------------------------|
D|--6~---------------------------------------------------------------------|
A|--4~---------------------------------------------------------------------|
E|-------------------------------------------------------------------------|
Добавлено: 01.06.2012
Другие материалы по этой песне:

Страница создана 18.03.2012
http://primanota.ru/kill-hannah/crazy-angel-chords.htm
Привет, Гость.
Предлагаем пройти революционный курс по гитаре.
Подарок от PrimaNota.Ru, забирай!