PrimaNota.ru - самый крупный в мире бесплатный архив песенных текстов, аккордов, табулатур и нот


Kill Cheerleader - Sell Your Soul - таба, бас-таба, видео

Регистрация Запомнить меня
Войти через:  Facebook Google Twitter Vk Yandex Mail.ru

Kill Cheerleader - Sell Your Soul - таба, бас-таба, видео

Печатать
Просмотров: 206
----------------------------------------------------------------------------
                             Sell Your Soul- Kill Cheerleader
----------------------------------------------------------------------------
Tabbed by:21st Century
Email:

Tuning:Standard
opening riff (guitar 1)
e|--------------------------------------------------------------------------|
B|--------------------------------------------------------------------------|
G|--------------------------------------------------------------------------|
D|-9-12p9-12-12-12-14-14b-14p12-12------------------------------------------|
A|--------------------------------------------------------------------------|
E|--------------------------------------------------------------------------|
Rhythm Guitar Chords "Gotta Job, Gotta Job, Gunna try to keep it good. I don't wanna 
do it all I can. Come On!"
e|--------------------------------------------------------------------------|
B|--------------------------------------------------------------------------|
G|--------------------------------------------------------------------------|
D|-9---------5--------7-----------------------------------------------------|
A|-9---------5--------7-----------------------------------------------------|
E|-7---------3--------5-----------------------------------------------------|
Little Bridge "When we came knockin you were gone, your still not home, Oh No, Oh No" (strum)
e|--------------------------------------------------------------------------|
B|--------------------------------------------------------------------------|
G|-7-------------9----------------------------------------------------------|
D|-7------7------9------9---------------------------------------------------|
A|-5------7------7------9---------------------------------------------------|
E|--------5------0------7---------------------------------------------------|
Break down then opening riff again
havent gotten to tabing out the solo yet
but if you listen its very easy
i will put it on here soon


| /  slide up
| \  slide down
| h  hammer-on
| p  pull-off
| ~  vibrato
| +  harmonic
| x  Mute note
===============================================================================
Добавлено: 27.03.2012
Вам также может быть интересно:
Другие материалы по этой песне:
  • Аккорды и текст

Страница создана 27.03.2012
http://primanota.ru/kill-cheerleader/sell-your-soul-chords.htm
Привет, Гость.
Предлагаем пройти революционный курс по гитаре.
Подарок от PrimaNota.Ru, забирай!