PrimaNota.ru - самый крупный в мире бесплатный архив песенных текстов, аккордов, табулатур и нот


Kilians - Fight The Start - таба, видео

Регистрация Запомнить меня
Войти через:  Facebook Google Twitter Vk Yandex Mail.ru

Kilians - Fight The Start - таба, видео

Печатать
Просмотров: 194
intro guitar 1:
e-----------------|
B---12-10-12-10-7-|
G-----------------|   x12
D-----------------|
A-----------------|
E-----------------|


intro/verse guitar 2:
e------------------------------|
B------------------------------|
G-------------4-4----9---------|
D---4-4--7-7--4-4----9(x8)-----|    x7
A---4-4--7-7--2-2----7---------|
E---2-2--5-5-------------------|

at the end of verse 1:
e-----
B-----
G--9--
D--9--  x16
A--7--
E-----

chorus both guitars:
e--------------------|
B--------------------|
G--4-----7-----9-----|
D--4-x8--7-x8--9-x16-|    x4
A--2-----5-----7-----|
E--------------------|

solo 1:
e--9-9-9-7-5-5---9-9-9-7-5----------------------|
B--------------------------7/9-7-9-7-9-10-9-7---|
G-----------------------------------------------|
D-----------------------------------------------|
A-----------------------------------------------|
E-----------------------------------------------|

e--9-9-9-7-5-12-9-7-9-7-5-7--------------------|
B---------------------------7/9-9-9-9-9-10-9-7-|
G----------------------------------------------|
D----------------------------------------------|
A----------------------------------------------|
E----------------------------------------------|

2.guitar plays the same as before

verse again: x2


chorus

after: guitar 1 solo 2:
e--14-------14-------14--------12-------12-------12------|
B-----15-15----15-15----15--------14-14----14-14----14---|
G--------------------------------------------------------|
D--------------------------------------------------------|
A--------------------------------------------------------|
E--------------------------------------------------------|

e--14-------14-------14--------15-------15-------15------|
B-----12-12----12-12----12--------15-15----15-15---------|
G--------------------------------------------------------|
D--------------------------------------------------------|
A--------------------------------------------------------|
E--------------------------------------------------------|

e--14-------14-------14--------12-------12-------12-----|
B-----15-15----15-15----15--------14-14----14-14----14--|
G-------------------------------------------------------|
D-------------------------------------------------------|
A-------------------------------------------------------|
E-------------------------------------------------------|

e--15-------15-------15-------15-------15-------15------|
B-----15-15----15-15----15-------15-15----15-15----15---|
G-------------------------------------------------------|
D-------------------------------------------------------|
A-------------------------------------------------------|  x2
E-------------------------------------------------------|

guitar 2:
e----------------------------|
B----------------------------|
G--7-------------------------|
D--7-x8--7-----9-----5-------|
A--5-----7-x8--9-x8--5-x8----|
E--------5-----7-----3-------|     x4

e----------------------------|
B----------------------------|
G--7-------------------------|
D--7-x8--7-----5-------------|
A--5-----7-x8--5-x16---------|
E--------5-----3-------------|

and then intro with 1 and 2 guitar

chorus 1 guitar:
e--9-9-9-7-5-5---9-9-9-7-5---------------------------|
B----------------------------7/9-7-9-7-9-10-9-7------|
G----------------------------------------------------|
D----------------------------------------------------|
A----------------------------------------------------|
E----------------------------------------------------|

e--9-9-9-7-5-5-x2--9-9-9-7-5-------------------------|
B------------------------------7/9-7-9-7-9-10-9-7----|
G----------------------------------------------------|
D----------------------------------------------------|
A----------------------------------------------------|
E----------------------------------------------------|

guitar 2 the same int he chorus as before

END
if you want to know more about this song or even play it
you must watch it on youtube and search for:
The Kilians
Добавлено: 02.03.2012
Другие материалы по этой песне:

Страница создана 02.03.2012
http://primanota.ru/kilians/fight-the-start-chords.htm
Привет, Гость.
Предлагаем пройти революционный курс по гитаре.
Подарок от PrimaNota.Ru, забирай!