PrimaNota.ru - самый крупный в мире бесплатный архив песенных текстов, аккордов, табулатур и нот


Kiko Loureiro - Valsa Da Menina - таба, видео

Регистрация Запомнить меня
Войти через:  Facebook Google Twitter Vk Yandex Mail.ru

Kiko Loureiro - Valsa Da Menina - таба, видео

Печатать
Просмотров: 65
Уроки эстрадного вокала в Санкт-Петербурге
-------------------------------------------------------------------------------
                             VALSA DA MENINA - Kiko Loureiro
-------------------------------------------------------------------------------

Tabbed by: Federico Bautista
E-mail: bautistafederico@outlook.com
February 2015


Standard tuning
2/4
                                                           |3-|
                   Q   E E   E E E E   Q E E E   E E E E   Q E EE E  HSE Q E
                E|-----0---|---------|-----0---|---------|---------|-0-------|
                B|-3-----3-|-2-0---0-|-3-----3-|-2-0---0-|-7----8-7|---------|
                G|-2-------|-1---3---|---2+----|-1---3---|-----6---|-------2+|
Acoustic Guitar D|-0-------|-3-------|-0-------|-3-------|---7-----|-----5---|
                A|---------|---------|---------|---------|-4-------|---2+----|
                E|---------|---------|---------|---------|---------|---------|


   E S SQ E   E S S E E   E E E E   QSSS S S E   EE.E Q     Q. E Q SS
E|------2---|---2-3-2-0+|---------|-5----5-7-5-|----5+----|-3--------|
B|-3-2-3----|-3-------3+|---3-2-3-|----3+------|----3+----|-3------3-|
G|--------4-|---------2+|---2-2---|---2--------|----2+----|-3----3---|
D|----------|-----------|-----0---|------------|----------|-5--5-----|
A|----------|-----------|---------|--2---------|--2+------|----------|
E|------3+--|---------2+|---2-2---|-0----------|----------|----------|

                                                          |3-|
   S S E Q     Q E E E   E E E E   Q E E E   E E E E   Q E EE E  HSE Q E
E|-3-5-3+----|-----0---|---------|-----0---|---------|---------|-0-------|
B|-----------|-3-----3-|-2-0---0-|-3-----3-|-2-0---0-|-7----8-7|---------|
G|-----------|-2-2-----|-1---3---|---2-----|-1---3---|-----6---|-------2+|
D|-----------|-0-------|-3-------|-0-------|-3-------|---7-----|-----5---|
A|-----------|---------|---------|---------|---------|-4-------|---2+----|
E|-----------|---------|---------|---------|---------|---------|---------|


   E S SQ E   E S S E E   E E E E   QSSS S S E   EE.E Q     H E Q E   S S E E E
E|------2---|---2-3-2-0+|---------|-5----5-7-5-|----5+----|-3-------|-3-5-3-----|
B|-3-2-3----|-3---------|---3-2-3-|----3+------|----3+----|-3-----3-|-------3---|
G|--------4-|-----------|---2-2---|---2--------|----2+----|-3---3---|---------3-|
D|----------|-----------|-----0---|------------|----------|-5-5-----|-----------|
A|----------|-----------|---------|--2---------|--2+------|---------|-----------|
E|------3+--|---------2+|---------|-0----------|----------|---------|-----------|


   H   E E   S S E Q     H   E E   SSE Q     Q Q.Q     Q   E E   E E E E
E|-2-------|-2-3-2-----|---------|--2------|---------|-----0---|---------|
B|-3-----3-|-------3---|-5-------|-5-5-----|-3---3---|-3-----3-|-2-0---0-|
G|-4---4---|-----------|-------4-|-----4---|-----2---|-2-------|-2---3---|
D|-2-------|-----------|-----5---|---------|---3-----|-0-------|---------|
A|-3-------|-----------|-2-------|---------|---------|---------|---------|
E|---------|-----------|---------|---------|-1-------|-2-------|-2-------|

       |3|  |3||3|  |3-|               3/4           2/4
   H   EEE  QEEQEE  EEEEE E   E E E E   H E E E Q E   E S SQ     E E E E
E|--------|-------|---------|---------|-------------|------0+--|---------|
B|-3-----3|---3--3|-----5-3-|-2-0-----|-7-----7-----|-7-8-7----|---------|
G|------0-|--0--0-|----4----|-4---3-4-|-----7---7---|-6--------|---7-6-7-|
D|-----0--|-2--4--|--3------|-2-------|---4-------4-|-5--------|---------|
A|--------|-------|---------|---------|-0-----------|----------|---------|
E|-3------|-------|-4-------|-4-------|-------------|-6--------|---------|


   E E Q E   E E  Q E   H         Q   E E   E E E E   Q E E E   E E E E
E|-6-9-7---|----------|---------|-----0---|---------|-----0---|---------|
B|-7---7---|-7-10-8---|-7-------|-3-----3-|-2-0---0-|-3-----3-|-2-0---0-|
G|-6---7---|-7----7-7-|-6-------|-2-------|-1---3---|---2+----|-1---3---|
D|-------7-|-8----8---|-8-------|-0-------|-3-------|-0-------|-3-------|
A|-----7---|-7----7---|-0-------|---------|---------|---------|---------|
E|-0-------|----------|---------|---------|---------|---------|---------|

   |3-||3-|
   QE EEE E  HSE Q E   E S SQ E   E S S E E   E E E E   QSSS S S E   EE.E Q
E|---------|-0-------|------2---|---2-3-2-0+|---------|-5----5-7-5-|----5+----|
B|-7----8-7|---------|-3-2-3----|-3-------3+|---3-2-3-|----3+------|----3+----|
G|-----6---|-------2+|--------4-|---------2+|---------|---2--------|----2+----|
D|----7----|-----5---|----------|-----------|---------|------------|----------|
A|--4+-----|---2+----|----------|-----------|---------|--2---------|--2+------|
E|---------|---------|------3+--|---------2+|---------|-0----------|----------|


   Q. E Q SS  S S E E E   H   E E   S S E Q     H   E E   SSE Q     H   E E
E|-3--------|-3-5-3+----|-2-------|-2-3-2-----|---------|--2------|---------|
B|-3------3-|---------3-|-3-----3-|-------3---|-5-------|-5-5-----|-3-------|
G|-3----3---|-----------|-4---4---|-----------|-------4-|-----4---|-------2-|
D|-5--5-----|-----------|-2-------|-----------|-----5---|---------|-----3---|
A|----------|-----------|-3-------|-----------|-2-------|---------|---------|
E|----------|-----------|---------|-----------|---------|---------|-1-------|

             |3|                    |3|  |3||3|  |3-|
   E E E E   QEEE E   E E E E   H   EEE  QEEQEE  EEEEE E   E E E E
E|---------|----0---|---------|--------|-------|---------|---------|
B|-3---3---|-3----3-|-2-0---0-|-3-----3|---3--3|-----5-3-|-2-0-----|
G|---2---2-|---2----|-2---3---|------0-|--0--0-|----4----|-4---3-4-|
D|---------|--0-----|-0-------|-----0--|-2--4--|--3------|-2-------|
A|---------|--------|---------|--------|-------|---------|---------|
E|---------|-2------|-2-------|-3------|-------|-4-------|-4-------|

  3/4           2/4       3/4           2/4
   H E E E Q E   Q   Q     E E Q   E E   E E Q E   E E  Q E   H         Q.E E E
E|-------------|-----0---|-------------|-6-9-7---|----------|---------|-5-----5-|
B|-7-----7-----|-7-------|-8-7---------|-7---7---|-7-10-8---|-7-------|-----6-6-|
G|-----7---7---|-6-------|-----7---6-7-|-6---7---|-7----7-7-|-6-------|---7---7-|
D|---4-------4-|-5-------|-------------|-------7-|-8----8---|-8-------|---------|
A|-0-----------|---------|-------------|-7---7---|-7----7---|-0-------|---------|
E|-------------|-6-------|-------------|---------|----------|---------|-6-------|


   E E E E   Q E Q E   Q. E E E   E E E E   S SE.E S S  Q SSQ E   Q.E Q E
E|-5-4-4-3-|-3-------|-6------6-|-6-5-5-3-|-2-3--9-9-7|-9---7-9-|-10----8-|
B|-6-6-6-6-|-6-6-5-6-|-7----7-7-|-7-6-6-5-|-4-5--7-7--|-7--7----|-----8---|
G|-7-7-7-7-|-7-------|-6--6-----|---------|------7----|-7-7-----|---8-----|
D|---------|---------|-5--------|---------|----0------|---------|---------|
A|---------|---------|-0+-------|---------|-----------|---------|-6-------|
E|---------|---------|----------|---------|-----------|---------|---------|


   E E E E   Q E Q     Q   Q E   Q E Q     H         Q Q.Q     H
E|-6-------|-----5+--|---------|-----5+--|---------|-----5+--|---------|
B|---8-----|---------|---------|---------|---------|---------|---------|
G|-----8-7-|-6-------|-----6-5-|-3-------|---------|-2-------|---------|
D|---------|---5-----|---------|---2-----|---------|---------|---------|
A|---------|-0+------|---------|---------|---------|-3-------|---------|
E|---------|---------|---------|-3+------|---------|-1-1+----|---------|


   H         H         H                   Q   E E   E E E E   H
E|-0+------|---------|-5+------|---------|-----0---|---------|---------|
B|-0+------|---------|-5+------|---------|-3-----3-|-2-0---0-|-3-------|
G|-2+------|---------|-7+------|---------|-2-------|-1---3---|-2-------|
D|-3+------|---------|-8+------|---------|-0-------|-3-------|-0-------|
A|-2+------|---------|-7+------|---------|---------|---------|-0-------|
E|-0+------|---------|-5+------|---------|---------|---------|---------|




What do all the symbols mean?
-----------------------------

W - whole note (semibreve)
H - half note (minim)
Q - quarter note (crotchet)
E - 8th note (quaver)
S - 16th note (semiquaver)
T - 32nd note (demisemi quaver)
X - 64th note (hemidemisemi quaver)
? - Fret number not defined (note out of range)

If a dot appears after one of the above then it means that the note is 1.5
times as long, e.g. Q. is 3 8th notes long. Two dots means 1.75 times long.

If a '+' sign appears after a note then that note is tied to (held on to) the
next note.

 ______
|1.    | - play bar/s under this sign first time only in repeats

|2.    | - play bar/s under this sign second time only in repeats

|1.3.  | - play bar/s under this sign first and third time only in repeats

||
||*
||*      - Repeat back to this sign
||

 ||
*||
*||      - Repeat from this sign
 ||


|-3-|    - Triplet
Добавлено: 17.12.2015
Другие материалы по этой песне:
  • Аккорды и текст

Страница создана 17.12.2015
http://primanota.ru/kiko-loureiro/valsa-da-menina-chords.htm
Привет, Гость.
Предлагаем пройти революционный курс по гитаре.
Подарок от PrimaNota.Ru, забирай!