PrimaNota.ru - самый крупный в мире бесплатный архив песенных текстов, аккордов, табулатур и нот


Kiiara - Gold - таба, видео

Регистрация Запомнить меня
Войти через:  Facebook Google Twitter Vk Yandex Mail.ru

Kiiara - Gold - таба, видео

Печатать
Просмотров: 89
song:
youtube: https://www.youtube.com/watch?v=F1pB4rCz3dQ

Kiiara:
facebook: https://www.facebook.com/kiiaraofficial/?fref=ts
twitter: https://twitter.com/kiiara?lang=da

I'm not going to try to write the lyrics to the mixed bits, so i'm just adding chords and tabbing. 
listen to the song while playing and it makes total sense :)
( Fm G A#m C D ) 

This song isn't 2 or 4 time 4/4th's per line its 12 counts = 3 x 4/4th's (-ish)
the tab is divided into 3, as to make it easier to follow the beat.

[Intro]
  Fm              G                                A#m              C                       D
e|--------------------------------|--------------------------------|--------------------------------|
B|--------------------------------|--------------------------------|--------------------------------|
G|--------------------------------|----------------3-------3-------|5---------------5-------7---7---|
D|3-------3-------5---------------|5---------------3-------3-------|5---------------5-------7---7---|
A|3-------3-------5---------------|5---------------1-------1-------|3---------------3-------5---5---|
E|1-------1-------3---------------|3-------------------------------|--------------------------------|

  1   -   2   -   3   -   4   -    1   -   2   -   3   -   4   -    1   -   2   -   3   -   4   -

e|--------------------------------|--------------------------------|--------------------------------|
B|--------------------------------|--------------------------------|--------------------------------|
G|--------------------------------|----------------5-------5-------|7-------------------------------|
D|3-------3-------5---------------|5---------------5-------5-------|7-------------------------------|
A|3-------3-------5---------------|5---------------3-------3-------|5-------------------------------|
E|1-------1-------3---------------|3-------------------------------|--------------------------------|
Добавлено: 25.06.2016
Другие материалы по этой песне:
  • Аккорды и текст

Страница создана 24.06.2016
http://primanota.ru/kiiara/gold-chords.htm
Привет, Гость.
Предлагаем пройти революционный курс по гитаре.
Подарок от PrimaNota.Ru, забирай!