PrimaNota.ru - самый крупный в мире бесплатный архив песенных текстов, аккордов, табулатур и нот


Kids In The Way - Your Demon - таба, бас-таба, видео

Регистрация Запомнить меня
Войти через:  Facebook Google Twitter Vk Yandex Mail.ru

Kids In The Way - Your Demon - таба, бас-таба, видео

Печатать
Просмотров: 118
Kids in the way
Your Demon
Tuning: DADGBe
Tabber

0:00
E:----------------------------------------------------------|
B:----------------------------------------------------------|
G:------------3---------------------------------------------|
D:1-1-1-1-4-4---6--x3-------------------------------1-1-----|
A:1-1-1-1--------------- 4-1-1-4-1-1-4-1-1-4-1-1------------|
E:1-1-1-1---------------------------------------------------|

0:12
E:---------------------------------|
B:---------------------------------|
G:---------------------------------|
D:1---1---8-----6----4-------------|x2
A:1---1---8-x8- 6-x4-4-x4----------|
E:1---1---8-----6----4-------------|

0:35
E:----------------------------------------------------------|
B:----------------------------------------------------------|
G:------------3---------------------------------------------|
D:1-1-1-1-4-4---6--x3-------------------------------1-1-----|
A:1-1-1-1--------------- 4-1-1-4-1-1-4-1-1-4-1-1------------|
E:1-1-1-1---------------------------------------------------|

0:59
E:-----6---------6--------6---------|
B:--7----9-----7---7----7-----9-----|
G:8----------8--------8-------------|
D:----------------------------------|
A:----------------------------------|
E:----------------------------------|

1:08
E:----------------------------------|
B:4-6-7-7-9-9-11-11-----------------|
G:----------------------------------|
D:----------------------------------|
A:----------------------------------|
E:----------------------------------|

1:11
E:----9-6-------9---------9-6-------|
B:--7---------7---6----7------------|
G:8---------8--------8--------------|
D:----------------------------------|
A:----------------------------------|
E:----------------------------------|

1:19
E:------------------------------------|
B:6-6-6-6-7-7-7-7-8-8-8-8-11-11-11-11-|
G:------------------------------------|
D:------------------------------------|
A:------------------------------------|
E:------------------------------------|

1:22
E:------------------------------------------------------|
B:------------------------------------------------------|
G:------------3-----------------------------------------|
D:1-1-1-1-4-4---6--x3-------------------------------1-1-| x2
A:1-1-1-1--------------- 4-1-1-4-1-1-4-1-1-4-1-1--------|
E:1-1-1-1-----------------------------------------------|

1 46
E:------------------------------|
B:------------------------------|
G:4-----3-----------------------|
D:4-x8--3-x8---1----------------| x4
A:2-----1------1-x16------------|
E:-------------1----------------|

2:09
E:------------------------------|
B:------------------------------|
G:4-----3-----------------------|
D:4-x8--3-x8---6----------------| x4
A:2-----1------6-x16------------|
E:-------------6----------------|

2:15 (not sure of this part)
E:--------------------------------------|
B:--------------------------------------|
G:--------------------------------------|
D:11-9-9--11-9-9--11-9-9--11-9-9--13-13-|
A:11-9-9--11-9-9--11-9-9--11-9-9--13-13-|
E:11-9-9--11-9-9--11-9-9--11-9-9--13-13-|

2:18
E:------------------------------------------------------|
B:------------------------------------------------------|
G:---------------3--------------------------------------|
D:1-1-1-1-4-4---6--x3-------------------------------1-1-| x2
A:1-1-1-1--------------- 4-1-1-4-1-1-4-1-1-4-1-1--------|
E:1-1-1-1-----------------------------------------------|

2:30
E:--------------------------------------------------------|
B:--------------------------------------------------------|
G:---------------3----------------------------------------|
D:1-1-1-1-4-4---6--x3--4-4-8-6-x2---------------------1-1-|
A:1-1-1-1--------------4-4-8-6----4-1-1-4-1-1-4-1-1-4-----|
E:1-1-1-1--------------4-4-8-6----------------------------|


If you have any corrections or comments, please write to Johan-hummel@hotmail.com
Добавлено: 02.06.2012
Другие материалы по этой песне:
  • Аккорды и текст

Страница создана 02.06.2012
http://primanota.ru/kids-in-the-way/your-demon-chords.htm
Привет, Гость.
Предлагаем пройти революционный курс по гитаре.
Подарок от PrimaNota.Ru, забирай!