PrimaNota.ru - самый крупный в мире бесплатный архив песенных текстов, аккордов, табулатур и нот


Kids In The Way - Winter Passing - бас-таба, видео

Регистрация Запомнить меня
Войти через:  Facebook Google Twitter Vk Yandex Mail.ru

Kids In The Way - Winter Passing - бас-таба, видео

Печатать
Просмотров: 97
Song:    Winter Passing
Artist:  Kids In The Way
Album:   A Love Hate Masquerade
Tab by:  Dierbergsbagger
Tuning:  Standard

Intro + Chorus
G|---------------------------------------------------|
D|---------------------------------------------------|
A|----77-22~-44--------------------------------------|
E|-44-----------0000---------------------------------|

Verse
G|---------------------------------------------------|
D|---------------------------------------------------|
A|-------4(x8)-7(x8)-6(x8)---------------------------|
E|-4(x8)---------------------------------------------|
Timing here is slow.  You will only play it twice 
during any verse.


Solo
G|---------------------------------------------------|
D|---------------------------------------------------|
A|-------2(x8)-------4(x8)---------------------------|
E|-4(x8)-------4(x8)---------------------------------|
This is also slow

G|---------------------------------------------------|
D|---------------------------------------------------|
A|-------------------------77777-77777-66666-66666---|
E|-44444-44444-77777-77777---------------------------|


The song itself is very simple, the only thing that 
may be wrong is the first part of the solo which could 
use refining.
Добавлено: 10.06.2012
Другие материалы по этой песне:
  • Аккорды и текст

Страница создана 10.06.2012
http://primanota.ru/kids-in-the-way/winter-passing-chords.htm
Привет, Гость.
Предлагаем пройти революционный курс по гитаре.
Подарок от PrimaNota.Ru, забирай!