PrimaNota.ru - самый крупный в мире бесплатный архив песенных текстов, аккордов, табулатур и нот


Kids In The Way - Safety In The Darkness - текст песни, таба, видео

Регистрация Запомнить меня
Войти через:  Facebook Google Twitter Vk Yandex Mail.ru

Kids In The Way - Safety In The Darkness - текст песни, таба, видео

Печатать
Просмотров: 189
Safety In The Darkness
Kids In The Way
Apparations Of Melody
Flicker Records

Standard Tuning

Tab by HolyBlood8

Verse
--------------------------------------------------------------|
--------------------------------------------------------------|
----------------------------------9999--11/11/11/11--4444--66-|
--666666--666666--666666--666666--9999--11/11/11/11--4444--66-|  x2
--666666--666666--666666--666666--7777---9--9--9--9--2222--44-|
--444444--444444--444444--444444------------------------------|

Pre-Chorus
---------------------------------------------------------------|
--9999999999--9999999999---------------------------------------|
--8888888888--8888888888--------------4444444444---------------|
--6666666666--6666666666--2222222222--4444444444---------------|
--------------------------2222222222--2222222222---2h42--------|
--------------------------0000000000---------------------2h42--|

---------------------------------------------------------------|
--9999999999--9999999999--7-7-7---4-4-4------------------------|
--8888888888--8888888888---8-8-89--4-4-46p4h6------------------|
--6666666666--6666666666---------------------------------------|
---------------------------------------------------------------|
---------------------------------------------------------------|

Chorus

Guitar 1
---------------------------------------------------------------|
---------------------------------------------------------------|
---------------------------------------------------------------|
--9-11--9-11--9-11--9-11--997766442----------------------------|
--7--9--7--9--7--9--7--9---------------------------------------|
---------------------------------------------------------------|

Guitar 2
----------------------------------------------------------|
-------------------------5-----7-----5-----7--------------|
-------------------------4x12--6x12--4x12--6x12-----------|
---9----11----9----11----2-----4-----2-----4--------------|
--9-9-11--11-9-9-11--11-------------------------997766442-|
----------------------------------------------------------|


Chorus 2
Guitar 1
-------------------------|
-------------------------|
-------------------------|
--9-11--9-11--9-11--9-11-|
--7--9--7--9--7--9--7--9-|
-------------------------|

Guitar 2
-------------------------|
-------------------------|
-------------------------|
---9----11----9----11----|
--9-9-11--11-9-9-11--11--|
-------------------------|


Bridge

Guitar 1
------------------------   -----------|
------------------------   -----------|
--9-11--9-11--9-11--9-11   --4--------|
--7--9--7--9--7--9--7--9   --4--2--4--|
------------------------   --2--2--4--|
------------------------   -----0--2--|

Guitar 2
-76---76---76---76---76---76---76---76--|
5--5-7--7-5--5-7--7-5--5-7--7-5--5-7--7-|
----------------------------------------|
----------------------------------------|
----------------------------------------|
----------------------------------------|

Then
----
-12- use delay
----
----
----
----

Guitar 1
-------------------------------------------------------------------------|
-------------------------------------------------------------------------|
--------------------4444444444444444-------------------------------------|
--6666666666666666--4444444444444444--2222222222222222--4444444444444444-|
--6666666666666666--2222222222222222--2222222222222222--4444444444444444-|
--4444444444444444--------------------0000000000000000--2222222222222222-|
PM_______________________________________________________________________

Guitar 2
--------------------------|
--------------------------|
--------8-----------------|
--989989----646646--86468-|
--------------------------|
--------------------------|

-------------------------------------------------------------------------|
-------------------------------------------------------------------------|
--------------------4444444444444444-------------------------------------|
--6666666666666666--4444444444444444--2222222222222222--4444444444444444-|
--6666666666666666--2222222222222222--2222222222222222--4444444444444444-|
--4444444444444444--------------------0000000000000000--2222222222222222-|

Outro/Chorus

Guitar 1
---------------------------------------|
---------------------------------------|
-----11--9--11-------------------------|
--2--11--9--11--6----------------------|
--0---9--7---9--6----------------------|
--0-------------4----------------------|

Guitar 2
---------------------------------------|
---------------------------------------|
---------------------------------------|
--2--4--2--4--6------------------------|
--2--4--2--4--6------------------------|
--0--2--0--2--4------------------------|

That's it
Добавлено: 21.05.2012
Другие материалы по этой песне:
  • Аккорды и текст

Страница создана 01.04.2012
http://primanota.ru/kids-in-the-way/safety-in-the-darkness-chords.htm
Привет, Гость.
Предлагаем пройти революционный курс по гитаре.
Подарок от PrimaNota.Ru, забирай!