PrimaNota.ru - самый крупный в мире бесплатный архив песенных текстов, аккордов, табулатур и нот


Kids In The Way - Fiction - текст песни, таба, бас-таба, видео

Регистрация Запомнить меня
Войти через:  Facebook Google Twitter Vk Yandex Mail.ru

Kids In The Way - Fiction - текст песни, таба, бас-таба, видео

Печатать
Просмотров: 162
Symbols-
()= Silent Note
 /= Slide up
 \= Slide down
 .= Palm Mute
 o= Repeat Bar
 p= Pull
 x= Dead Note (Palm mute the strings while
               not letting any note sound)

00:00
E-----------------------------------------|
B----------------------------------------o|
G----3-6-5---3-3---3--3--3----3-6-5----3--|
D--3-------6------6--6--6----3------(6)---|
A----------------------------------------o|
D-----------------------------------------|

00:13
E-------------------------------------------------------------------------|
B-------------------------------------------------------------------------|
G-------------------------------------------------------------------------|
D-3-3-3-3-3-3-3-3-3-3-5-5-6-6-6-6-6-6-6-6\1-1-1-1-1-1-1-1/8-8-8-8-8-8-8-8-|
A-3-3-3-3-3-3-3-3-3-3-5-5-6-6-6-6-6-6-6-6\1-1-1-1-1-1-1-1/8-8-8-8-8-8-8-8-|
D-3-3-3-3-3-3-3-3-3-3-5-5-6-6-6-6-6-6-6-6\1-1-1-1-1-1-1-1/8-8-8-8-8-8-8-8-|
  x x x x . . . . . . . . . . . . . . . . . . . . . . . . . . . . . . . .

00:20
E-----------------------------------------------------------------|
B-----------------------------------------------------------------|
G-----------------------------------------------------------------|
D-3-3-3-3-3-3-5-5-6-6-6-6-6-6-6-6\1-1-1-1-1-1-1-1/8-8-8-8-8-8-8-8-|
A-3-3-3-3-3-3-5-5-6-6-6-6-6-6-6-6\1-1-1-1-1-1-1-1/8-8-8-8-8-8-8-8-|
D-3-3-3-3-3-3-5-5-6-6-6-6-6-6-6-6\1-1-1-1-1-1-1-1/8-8-8-8-8-8-8-8-|
  . . . . . . . . . . . . . . . . . . . . . . . . . . . . . . . .

00:27
E-----------------------------------------------------------------|
B-----------------------------------------------------------------|
G-----------------------------------------------------------------|
D-3-3-3-3-3-3-5-5-6-6-6-6-6-6-6-6\1-1-1-1-1-1-1-1/8-8-8-8-8-8-8-8-|
A-3-3-3-3-3-3-5-5-6-6-6-6-6-6-6-6\1-1-1-1-1-1-1-1/8-8-8-8-8-8-8-8-|
D-3-3-3-3-3-3-5-5-6-6-6-6-6-6-6-6\1-1-1-1-1-1-1-1/8-8-8-8-8-8-8-8-|
  . . . . . . . . . . . . . . . . . . . . . . . . . . . . . . . .

00:33                      (Build by releasing PM slowly) x-------x-|
E-------------------------------------------------------------------|
B-------------------------------------------------------------------|
G-------------------------------------------------------------------|
D-3-3-3-3-3-3-5-5-6-6-6-6-6-6-6-6\1-1-1-1-1-1-1-1/8-8-8-8-8-8-8-8---|
A-3-3-3-3-3-3-5-5-6-6-6-6-6-6-6-6\1-1-1-1-1-1-1-1/8-8-8-8-8-8-8-8---|
D-3-3-3-3-3-3-5-5-6-6-6-6-6-6-6-6\1-1-1-1-1-1-1-1/8-8-8-8-8-8-8-8---|
  . . . . . . . . . . . . . . . . . . . . . . . . . . . .

00:40
E--------------------------------------|
B-------------------------------------o|
G-10-10-10/12\8-8-8-8-3-3-3/5----------|
D--x--x--x/-x\x-x-x-x-3-3-3/5-3-3-3-3--|
A--8--8--8/10\6-6-6-6-1-1-1/3-3-3-3-3-o|
D-----------------------------3-3-3-3--|

00:54
E----------------------------------------|
B----------------------------------------|
G----3-6-5---3-3---3--3--3----3-6-5----3-|
D--3-------6------6--6--6----3------(6)--|
A----------------------------------------|
D----------------------------------------|

00:57
E-----------------------------------------------------------------|
B-----------------------------------------------------------------|
G-----------------------------------------------------------------|
D-3-3-3-3-3-3-5-5-6-6-6-6-6-6-6-6\1-1-1-1-1-1-1-1/8-8-8-8-8-8-8-8-|
A-3-3-3-3-3-3-5-5-6-6-6-6-6-6-6-6\1-1-1-1-1-1-1-1/8-8-8-8-8-8-8-8-|
D-3-3-3-3-3-3-5-5-6-6-6-6-6-6-6-6\1-1-1-1-1-1-1-1/8-8-8-8-8-8-8-8-|
  . . . . . . . . . . . . . . . . . . . . . . . . . . . . . . . .

01:03
E-----------------------------------------------------------------|
B-----------------------------------------------------------------|
G-----------------------------------------------------------------|
D-3-3-3-3-3-3-5-5-6-6-6-6-6-6-6-6\1-1-1-1-1-1-1-1/8-8-8-8-8-8-8-8-|
A-3-3-3-3-3-3-5-5-6-6-6-6-6-6-6-6\1-1-1-1-1-1-1-1/8-8-8-8-8-8-8-8-|
D-3-3-3-3-3-3-5-5-6-6-6-6-6-6-6-6\1-1-1-1-1-1-1-1/8-8-8-8-8-8-8-8-|
  . . . . . . . . . . . . . . . . . . . . . . . . . . . . . . . .

01:10
E-----------------------------------------------------------------|
B-----------------------------------------------------------------|
G-----------------------------------------------------------------|
D-3-3-3-3-3-3-5-5-6-6-6-6-6-6-6-6\1-1-1-1-1-1-1-1/8-8-8-8-8-8-8-8-|
A-3-3-3-3-3-3-5-5-6-6-6-6-6-6-6-6\1-1-1-1-1-1-1-1/8-8-8-8-8-8-8-8-|
D-3-3-3-3-3-3-5-5-6-6-6-6-6-6-6-6\1-1-1-1-1-1-1-1/8-8-8-8-8-8-8-8-|
  . . . . . . . . . . . . . . . . . . . . . . . . . . . . . . . .

01:17                      (Build by releasing PM slowly) x-------x-|
E-------------------------------------------------------------------|
B-------------------------------------------------------------------|
G-------------------------------------------------------------------|
D-3-3-3-3-3-3-5-5-6-6-6-6-6-6-6-6\1-1-1-1-1-1-1-1/8-8-8-8-8-8-8-8---|
A-3-3-3-3-3-3-5-5-6-6-6-6-6-6-6-6\1-1-1-1-1-1-1-1/8-8-8-8-8-8-8-8---|
D-3-3-3-3-3-3-5-5-6-6-6-6-6-6-6-6\1-1-1-1-1-1-1-1/8-8-8-8-8-8-8-8---|
  . . . . . . . . . . . . . . . . . . . . . . . . . . . .

01:23
E--------------------------------------|
B-------------------------------------o|
G-10-10-10/12\8-8-8-8-3-3-3/5----------|
D--x--x--x/-x\x-x-x-x-3-3-3/5-3-3-3-3--|
A--8--8--8/10\6-6-6-6-1-1-1/3-3-3-3-3-o|
D-----------------------------3-3-3-3--|

01:50
E-----------------------|
B-----------------------|
G-----------------------|
D-3-1----10p8---8-----3-|
A-3-1---8-----8-----3---|
D-3-1-8-----------3-----|


Note:This song is written in Drop D Flat, but for only 1 note! Version 1 is the way I 
it in just drop D, but Version 2 is %100 correct...
-If you choose to play it in Drop D Flat, these tabs are all 1 note too low, so instead 
playing 8 on the A string, play 9... I ain't botherin' though, I just play it in D and 
the 1 note...


02:04
Version 1:                   Version 2: %100 Correct
E---------------------|      Eb---------------------|
B---------------------|      Bb---------------------|
G---------------------|      Gb---------------------|
D-3-3-3-1-3-1-1-1-1-1-|      Db-4-4-4-2-4-2-2-2-0-2-|
A-3-3-3-1-3-1-1-1-1-1-|      Ab-4-4-4-2-4-2-2-2-0-2-|
D-3-3-3-1-3-1-1-1-1-1-|      Db-4-4-4-2-4-2-2-2-0-2-|

02:09
E----------------------------------------------------|
B----------------------------------------------------|
G----3-3-3-3-3-xx-xx-5-5-5-5-5-5-5-5-6-6-6-6-5-5-5-5-|
D-xx-3-3-3-3-3-xx-xx-3-3-3-3-3-3-3-3-4-4-4-4-3-3-3-3-|
A-xx-1-1-1-1-1-xx-xx-3-3-3-3-3-3-3-3-4-4-4-4-3-3-3-3-|
D-xx-------------------------------------------------|

02:17
E-----------------------------------------|
B----------------------------------------o|
G----3-6-5---3-3---3--3--3----3-6-5----3--|
D--3-------6------6--6--6----3------(6)---|
A----------------------------------------o|
D-----------------------------------------|

02:23
E--------------------------------------|
B-------------------------------------o|
G-10-10-10/12\8-8-8-8-3-3-3/5----------|
D--x--x--x/-x\x-x-x-x-3-3-3/5-3-3-3-3--|
A--8--8--8/10\6-6-6-6-1-1-1/3-3-3-3-3-o|
D-----------------------------3-3-3-3--|


Note:Repeat 3x, on the third time, hold the last note.
02:50
E------------------|
B-----------------o|
G-3-3-3/5----------|
D-3-3-3/5-3-3-3-3--|
A-1-1-1/3-3-3-3-3-o|
D---------3-3-3-3--|

THE END- It's just that that easy!!

e-mail me at human_translucent@yahoo.com if you have troubles or see ANY corrections 
or just wanna comment!
Добавлено: 22.04.2012
Другие материалы по этой песне:

Страница создана 05.04.2012
http://primanota.ru/kids-in-the-way/fiction-chords.htm
Привет, Гость.
Предлагаем пройти революционный курс по гитаре.
Подарок от PrimaNota.Ru, забирай!