PrimaNota.ru - самый крупный в мире бесплатный архив песенных текстов, аккордов, табулатур и нот


Kids In The Way - Apparitions Of Melody - текст песни, таба, бас-таба, видео

Регистрация Запомнить меня
Войти через:  Facebook Google Twitter Vk Yandex Mail.ru

Kids In The Way - Apparitions Of Melody - текст песни, таба, бас-таба, видео

Печатать
Просмотров: 144
Kids in the way
Apparitions of melody
tuning:DADGBe

 Intro:

E:-------------------------------------------|
B:-------------------------------------------|
G:-------------------------------------------|
D:-------------------------------------------|
A:4-47p47p4-4-47p47p4--2-25p25p2-------------|
D:--------------------------------4-7-4-7----|

E:-------------------------------------------|
B:-------------------------------------------|
G:-------------------------------------------|
D:-------------------------------------------|
A:4-47p47p4-4-47p47p4--2-25p25p2----------4\-|
D:--------------------------------4-7-4-7----|

verse:start with bass and drums, then

E:----------------------------------------|
B:----------------------------------------|
G:----------------------------------------|
D:----------------------------------------|
A:4-47p47p4-4-47p47p4--2-25p25p2----------|
D:--------------------------------4-7-4-7-|

E:----------------------------------------|
B:----------------------------------------|
G:----------------------------------------|
D:----------------------------------------|
A:4-47p47p4-4-47p47p4--2-25p25p2----------|
D:--------------------------------4-7-4-7-|

Chorus:

E:-------------------------------------------------|
B:-------------------------------------------------|
G:9x9x9x9x999x9x9-8x8x8x8x888x8x8-6x6x6x6x666x6x6--|
D:7x7x7x7x777x7x7-8x8x8x8x888x8x8-6x6x6x6x666x6x6--|
A:7x7x7x7x777x7x7-6x6x6x6x666x6x6-4x4x4x4x444x4x4--|
D:-------------------------------------------------|

E:--------------------------------------------------|
B:--------------------------------------------------|
G:8x8x8x8x888x8x8-9x9x9x9x999x9x9-8x8x8x8x888x8x8---|
D:8x8x8x8x888x8x8-7x7x7x7x777x7x7-8x8x8x8x888x8x8---|
A:6x6x6x6x666x6x6-7x7x7x7x777x7x7-6x6x6x6x666x6x6---|
D:--------------------------------------------------|

E:------------------------------------------------|
B:-------------------------------------------7~---|
G:6x6x6x6x666x6x6-8x8x8x8x888x8x8-8-888-8888------|
D:6x6x6x6x666x6x6-8x8x8x8x888x8x8-8-888-----------|
A:4x4x4x4x444x4x4-6x6x6x6x666x6x6-6-666-----------|
D:------------------------------------------------|


bridge:


E:----------------------------------------|
B:----------------------------------------|
G:----------------------------------------|
D:----------------------------------------|
A:4-47p47p4-4-47p47p4--2-25p25p2----------|
D:--------------------------------4-7-4-7-|

E:----------------------------------------|
B:----------------------------------------|
G:----------------------------------------|
D:----------------------------------------|
A:4-47p47p4-4-47p47p4--2-25p25p2----------|
D:--------------------------------4-7-4-7-|

verse 2:

E:-----------------------------|
B:-----------------------------|
G:6~---------4~-----9~---------|
D:6~---------4~-----9~---------|
A:4~---------2~-----7~---------|
D:-----------------------------|

E:-----------------------------|
B:-----------------------------|
G:6~---------4~-----9~---------|
D:6~---------4~-----9~---------|
A:4~---------2~-----7~---------|
D:-----------------------------|

E:----------------------------------------|
B:----------------------------------------|
G:----------------------------------------|
D:----------------------------------------|
A:4-47p47p4-4-47p47p4--2-25p25p2----------|
D:--------------------------------4-7-4-7-|

E:----------------------------------------|
B:----------------------------------------|
G:----------------------------------------|
D:----------------------------------------|
A:4-47p47p4-4-47p47p4--2-25p25p2----------|
D:--------------------------------4-7-4-7-|

Chorus:

E:-------------------------------------------------|
B:-------------------------------------------------|
G:9x9x9x9x999x9x9-8x8x8x8x888x8x8-6x6x6x6x666x6x6--|
D:7x7x7x7x777x7x7-8x8x8x8x888x8x8-6x6x6x6x666x6x6--|
A:7x7x7x7x777x7x7-6x6x6x6x666x6x6-4x4x4x4x444x4x4--|
D:-------------------------------------------------|

E:--------------------------------------------------|
B:--------------------------------------------------|
G:8x8x8x8x888x8x8-9x9x9x9x999x9x9-8x8x8x8x888x8x8---|
D:8x8x8x8x888x8x8-7x7x7x7x777x7x7-8x8x8x8x888x8x8---|
A:6x6x6x6x666x6x6-7x7x7x7x777x7x7-6x6x6x6x666x6x6---|
D:--------------------------------------------------|

E:--------------------------------------------------|
B:-------------------------------------------7~--5\-|
G:6x6x6x6x666x6x6-8x8x8x8x888x8x8-8-888-8888--------|
D:6x6x6x6x666x6x6-8x8x8x8x888x8x8-8-888-------------|
A:4x4x4x4x444x4x4-6x6x6x6x666x6x6-6-666-------------|
D:--------------------------------------------------|

Interlude:

E:14-1414-14-1414------------------14-1414-14-1414------------------|
B:----------------14-1414-14-1414\-----------------14-1414-14-1414\-|
G:------------------------------------------------------------------|
D:------------------------------------------------------------------|
A:------------------------------------------------------------------|
D:------------------------------------------------------------------|

E:14-1414-14-1414------------------------------------------------------|
B:----------------14-1414-14-1414--16-1616-16-1616--17-1717-17tp--17b~-|
G:---------------------------------------------------------------------|
D:---------------------------------------------------------------------|
A:---------------------------------------------------------------------|
D:---------------------------------------------------------------------|

E:----------------------------|
B:----------------------------|
G:6~-----4~-----9~---9~-------|
D:6~-----4~-----9~---9~-------|
A:4~-----2~-----7~---7~-------|
D:----------------------------|

Chorus:

E:-------------------------------------------------|
B:-------------------------------------------------|
G:9x9x9x9x999x9x9-8x8x8x8x888x8x8-6x6x6x6x666x6x6--|
D:7x7x7x7x777x7x7-8x8x8x8x888x8x8-6x6x6x6x666x6x6--|
A:7x7x7x7x777x7x7-6x6x6x6x666x6x6-4x4x4x4x444x4x4--|
D:-------------------------------------------------|

E:--------------------------------------------------|
B:--------------------------------------------------|
G:8x8x8x8x888x8x8-9x9x9x9x999x9x9-8x8x8x8x888x8x8---|
D:8x8x8x8x888x8x8-7x7x7x7x777x7x7-8x8x8x8x888x8x8---|
A:6x6x6x6x666x6x6-7x7x7x7x777x7x7-6x6x6x6x666x6x6---|
D:--------------------------------------------------|

E:------------------------------------------------|
B:-------------------------------------------7~---|
G:6x6x6x6x666x6x6-8x8x8x8x888x8x8-8-888-8888------|
D:6x6x6x6x666x6x6-8x8x8x8x888x8x8-8-888-----------|
A:4x4x4x4x444x4x4-6x6x6x6x666x6x6-6-666-----------|
D:------------------------------------------------|

Outro:

E:----------------------------------------|
B:----------------------------------------|
G:----------------------------------------|
D:----------------------------------------|
A:4-47p47p4-4-47p47p4--2-25p25p2----------|
D:--------------------------------4-7-4-7-|

E:----------------------------------------|
B:----------------------------------------|
G:----------------------------------------|
D:----------------------------------------|
A:4-47p47p4-4-47p47p4--2-25p25p2----------|
D:--------------------------------4-7-4-7-|

E:----------------------------------------|
B:----------------------------------------|
G:----------------------------------------|
D:----------------------------------------|
A:4-47p47p4-4-47p47p4--2-25p25p2----------|
D:--------------------------------4-7-4-7-|

E:----------------------------------------|
B:----------------------------------------|
G:----------------------------------------|
D:----------------------------------------|
A:4-47p47p4-4-47p47p4--2-25p25p2----------|
D:--------------------------------4-7-4-7-|

E:----------------------------------------------|
B:----------------------------------------------|
G:----------------------------------------------|
D:----------------------------------------------|
A:7p4-7p4-7p4-7p4--5p2-5p2-5p2-5p2-----------4\-|
D:---------------------------------4-77-4-77----|
Добавлено: 03.04.2012
Другие материалы по этой песне:
  • Аккорды и текст

Страница создана 03.04.2012
http://primanota.ru/kids-in-the-way/apparitions-of-melody-chords.htm
Привет, Гость.
Предлагаем пройти революционный курс по гитаре.
Подарок от PrimaNota.Ru, забирай!