PrimaNota.ru - самый крупный в мире бесплатный архив песенных текстов, аккордов, табулатур и нот


Kids In Glass Houses - Gold Blood - таба, видео

Регистрация Запомнить меня
Войти через:  Facebook Google Twitter Vk Yandex Mail.ru

Kids In Glass Houses - Gold Blood - таба, видео

Печатать
Просмотров: 95
-------------------------------------------------------------------------------
                             Gold Blood - Kids In Glass Houses
-------------------------------------------------------------------------------
Tabbed by: KyleS_T

Tuning:Drop D
Intro (Could be bass, not sure)
e|--------------------------------------------------------------------------|
B|--------------------------------------------------------------------------|
G|--------------------------------------------------------------------------|
D|--------------------------------------------------------------------------|
A|--------------------------------------------------------------------------|
D|--2x5--5--17x7------------------------------------------------------------|
Pre-Chorus
e|--------------------------------------------------------------------------|
B|--------------------------------------------------------------------------|
G|--5------7--------------8-------------------------------------------------|
D|--5-x6---7-x6---X4-Then-8-------------------------------------------------|
A|--3------5--------------6-------------------------------------------------|
D|--------------------------------------------------------------------------|
Chorus X2
e|--------------------------------------------------------------------------|
B|--------------------------------------------------------------------------|
G|------------77--77--------------------------------------------------------|
D|-22--22-----77--77---5--7-------------------------------------------------|
A|-22--22-----55--55---5--7-------------------------------------------------|
D|-22--22--------------5--7-------------------------------------------------|

Intro
Pre-Chorus
Chorus x4

e|--------------------------------------------------------------------------|
B|--------------------------------------------------------------------------|
G|---5*-x24------------------------5*-x6------------------------------------|
D|---------------------------------------------------------------5--7-------|
A|---------------------------------------------------------------5--7-------|
D|---------------------------------------------------------------5--7-------|

Pre-Chorus x4

Chours x4
e|--------------------------------------------------------------------------|
B|--------------------------------------------------------------------------|
G|---------7----------------------------------------------------------------|
D|--2------7-x6--5--7-------------------------------------------------------|
A|--2-x6---5-----5--7-------------------------------------------------------|
D|--2------------5--7-------------------------------------------------------|

Добавлено: 06.05.2012
Другие материалы по этой песне:
  • Аккорды и текст

Страница создана 06.05.2012
http://primanota.ru/kids-in-glass-houses/gold-blood-chords.htm
Привет, Гость.
Предлагаем пройти революционный курс по гитаре.
Подарок от PrimaNota.Ru, забирай!