PrimaNota.ru - самый крупный в мире бесплатный архив песенных текстов, аккордов, табулатур и нот


Kids In Glass Houses - Artbreaker Ii - текст песни, таба, видео

Регистрация Запомнить меня
Войти через:  Facebook Google Twitter Vk Yandex Mail.ru

Kids In Glass Houses - Artbreaker Ii - текст песни, таба, видео

Печатать
Просмотров: 109
'... when you never even use your heart'

e -----------------------------------|
B -----------------------------------|
G -----------------------------------|
D -55-555-555-555-588888888----------|
A -55-555-555-555-588888888-----5----|
D -55-555-555-555-588888888--057-750-|

e -----------------------------------|
B -----------------------------------|
G ------------------5555555555555555-|
D -3333333333333333-5555555555555555-|
A -3333333333333333-3333333333333333-|
D -3333333333333333------------------|

e --------------------------|
B --------------------------|
G --------------------------|
D -55-555-555-555-588888888-|
A -55-555-555-555-588888888-|
D -55-555-555-555-588888888-|

e --------------------------------------|
B --------------------------------------|
G ------5-----------------5-------------|
D --057-5--503-030355-057-5--503-030355-|
A --057-3--503-030355-057-3--503-030355-|
D --057----503-030355-057----503-030355-|

e --------------------------------------|
B --------------------------------------|
G ------5-----------------5-------------|
D --057-5--503-030355-057-5--503-030355-|
A --057-3--503-030355-057-3--503-030355-|
D --057----503-030355-057----503-030355-|

e ---------------------------------------|
B --5-75----------8-5---------681086-----|
G ------75-5-5-5-5----7-575757------75-7-|
D --------7-7-7-7------------------------|
A ---------------------------------------|
D ---------------------------------------|

e -----------------------------------------------|
B -----6---6--------------------------1313131310-|
G --757-757-757--777799991010101010--------------|
D -----------------------------------------------|
A -----------------------------------------------|
D -----------------------------------------------|

e --12-1412--------------------15-12-----------1315(b)13--------|
B ---------1513--13--13--13--13------1513151315---------1513-15-|
G -------------14--14--14--14-----------------------------------|
D --------------------------------------------------------------|
A --------------------------------------------------------------|
D --------------------------------------------------------------|

e --------13------13--------------------------------1717171722(tremolo)\-|
B --151315--151315--151315--151515151717171718181818---------------------|
G -----------------------------------------------------------------------|
D -----------------------------------------------------------------------|
A -----------------------------------------------------------------------|
D -----------------------------------------------------------------------|

e --13--------------------------------------------------(12)---------|
B ----13--------1310------10-----1310------10-----1310------(12)-----|
G ------10--1012------1012---1012------1012---1012--------------(12)-|
D -------------------------------------------------------------------|
A -------------------------------------------------------------------|
D -------------------------------------------------------------------|

e ------------------------------------------------------------|
B -----10-----1310-----10-----1310------10-----1310------14---|
G -1012---1012-----1012---1012------1012---1012------1214--14-|
D ------------------------------------------------------------|
A ------------------------------------------------------------|
D ------------------------------------------------------------|

e ------------------------------------------------------------|
B -----10-----1310-----10-----1310------10-----1310------14---|
G -1012---1012-----1012---1012------1012---1012------1214--14-|
D ------------------------------------------------------------|
A ------------------------------------------------------------|
D ------------------------------------------------------------|

(one the second 'whoa-oh')

e ------------|
B ------------|
G ----------5-|
D -0--7--3--5-|
A -0--7--3--3-|
D -0--7--3----|

e -----------------|
B -----------------|
G -7777---------5--|
D -xxxx0--7--3--5--|
A -55550--7--3--3--|
D -----0--7--3-----|

'I love the way'
e -------------|
B -------------|
G ----------0--|
D ----------0--|
A ----------0--|

e -----------------------------------|
B -----------------------------------|
G -----------------------------------|
D -55-555-555-555-588888888----------|
A -55-555-555-555-588888888-----5----|
D -55-555-555-555-588888888--057-750-|

e -----------------------------------|
B -----------------------------------|
G ------------------5555555555555555-|
D -3333333333333333-5555555555555555-|
A -3333333333333333-3333333333333333-|
D -3333333333333333------------------|

e --------------------------|
B --------------------------|
G --------------------------|
D -55-555-555-555-588888888-|
A -55-555-555-555-588888888-|
D -55-555-555-555-588888888-|

e --------------------------------------|
B --------------------------------------|
G ------5-----------------5-------------|
D --057-5--503-030355-057-5--503-030355-|
A --057-3--503-030355-057-3--503-030355-|
D --057----503-030355-057----503-030355-|

e --------------------------------------|
B --------------------------------------|
G ------5-------------------------------|
D --057-5--503-030355--0--0--0--0--3-3--|
A --057-3--503-030355--0--0--0--0--3-3--|
D --057----503-030355--0--0--0--0--3-3--|
Добавлено: 06.05.2012
Другие материалы по этой песне:
  • Аккорды и текст

Страница создана 24.04.2012
http://primanota.ru/kids-in-glass-houses/artbreaker-ii-chords.htm
Привет, Гость.
Предлагаем пройти революционный курс по гитаре.
Подарок от PrimaNota.Ru, забирай!