PrimaNota.ru - самый крупный в мире бесплатный архив песенных текстов, аккордов, табулатур и нот


Kids In Glass Houses - Artbreaker I - текст песни, таба, видео

Регистрация Запомнить меня
Войти через:  Facebook Google Twitter Vk Yandex Mail.ru

Kids In Glass Houses - Artbreaker I - текст песни, таба, видео

Печатать
Просмотров: 100
-------------------------------------------------------------------------------
			     Artbreaker I - Kids In Glass Houses
-------------------------------------------------------------------------------
Tabbed by: Aaron Strawbridge (Shikari_18)
Email:aza24@hotmail.co.uk

Tuning: Drop D


This is my first tab so please rate and comment but be kind and constructive please! :)

Intro:

start off making some feedback noise then -

e|0~-------------------------------------------------------------------------|
B|0~-------------------------------------------------------------------------|
G|0~-------------------------------------------------------------------------|
D|---------------------------------------------------------------------------|
A|------0~-------------------------------------------------------------------|
D|---------------------------------------------------------------------------|

First time round is quiet then second time full volume!!

e|--------------------------------------------------------------------------------|
B|--------------------------------------------------------------------------------|
G|--7-57------------7-57-------5\-------------------------------------------------|
D|557-5755-77911--557-57-33-0305\-------------------------------------------------|
A|55----55-77911--55-----33-030----------------------------------------------|----|
D|55----55-77911--55-----33-030----------------------------------------------| ---|
										|
e|------------------------------------------------------------------------------|  |Repeat Once
B|---------------------------------------------------------------------------| -|
G|--7-57------------7-57-----------------------------------------------------| -|
D|557-5755-77911--557-57-33-03-----------------------------------------------| -|
A|55----55-77911--55-----33-03-----------------------------------------------|--|
D|55----55-77911--55-----33-03--------------------------------------------------|


Verse 1:

This is not the way we planned it, This is just the way it's going down, the greedy kiss 
empty handed,

e|---------------------------------------------------------------------------------------------|
B|---------------------------------------------------------------------------------------------|
G|---------------------------------------------------------------------------------------------|
D|-------------------------------------------------------------------------------------57-10-7-|
A|-------------------------------------------------------------------------------------57-10-7-|
D|9111191111119111111911\141414-9111191111119111111911\141414/9777977797779777/5777577757-10-7-|

And i can see the vultures landing, the value of the dollar to the noun, forever underestimated.

e|---------------------------------------------------------------------------------------------|
B|---------------------------------------------------------------------------------------------|
G|---------------------------------------------------------------------------------------------|
D|-------------------------------------------------------------------------------------57-10-7-|
A|-------------------------------------------------------------------------------------57-10-7-|
D|9111191111119111111911\141414-9111191111119111111911\141414/9777977797779777/5777577757-10-7-|


Chorus:

I love the way you call it art, when you never even use your heart, and i just 
wanna tear you apart.

e|---------------------------------------------------------------------------|
B|----------------5555555555555555-------------------------------------------|
G|----------------5555555555555555-------------------------------------------|
D|3333333333333333333333333333333355-555-555-555-58888888--------------------|
A|3333333333333333----------------55-555-555-555-58888888----5---------------|
D|3333333333333333----------------55-555-555-555-58888888-057-750------------|

I love the way you call it art, when you never even use your heart, and i just 
wanna tear you apart.

e|---------------------------------------------------------------------------|
B|----------------5555555555555555-------------------------------------------|
G|----------------5555555555555555-------------------------------------------|
D|3333333333333333333333333333333355-555-555-555-58888888--------------------|
A|3333333333333333----------------55-555-555-555-58888888----5---------------|
D|3333333333333333----------------55-555-555-555-58888888-057-750------------|


Clean and quiet before verse 2

e|---------------------------------------------------------------------------|
B|---------------------------------------------------------------------------|
G|--7-57---------------------------------------------------------------------|
D|557-5755-77911-------------------------------------------------------------|
A|55----55-77911-------------------------------------------------------------|
D|55----55-77911-------------------------------------------------------------|

Verse 2:

The needle finds the vinyl vein and, silence deafens everyone around, raise a 
glass of punk champagne

e|---------------------------------------------------------------------------------------------|
B|---------------------------------------------------------------------------------------------|
G|---------------------------------------------------------------------------------------------|
D|-------------------------------------------------------------------------------------57-10-7-|
A|-------------------------------------------------------------------------------------57-10-7-|
D|9111191111119111111911\141414-9111191111119111111911\141414/9777977797779777/5777577757-10-7-|

this is not the way we planned it, glad to say her bad ship's going down, so party like 
understand it.

e|---------------------------------------------------------------------------------------------|
B|---------------------------------------------------------------------------------------------|
G|---------------------------------------------------------------------------------------------|
D|-------------------------------------------------------------------------------------57-10-7-|
A|-------------------------------------------------------------------------------------57-10-7-|
D|9111191111119111111911\141414-9111191111119111111911\141414/9777977797779777/5777577757-10-7-|

Chorus:

I love the way you call it art, when you never even use your heart, and i just 
wanna tear you apart.

e|---------------------------------------------------------------------------|
B|----------------5555555555555555-------------------------------------------|
G|----------------5555555555555555-------------------------------------------|
D|3333333333333333333333333333333355-555-555-555-58888888--------------------|
A|3333333333333333----------------55-555-555-555-58888888----5---------------|
D|3333333333333333----------------55-555-555-555-58888888-057-750------------|

I love the way you call it art, when you never even use your heart, and i just 
wanna tear you apart.

e|-----------------------------------------------------------------------------------|
B|----------------5555555555555555---------------------------------------------------|
G|----------------5555555555555555---------------------------------------------------|
D|3333333333333333333333333333333355-555-555-555-58888888/---------------------------|
A|3333333333333333----------------55-555-555-555-58888888/----5------------5---------|
D|3333333333333333----------------55-555-555-555-58888888/-057-73030355-057-73030355-|

Outro:

This is not the way we came to play around, this is not the way we came to play around.

e|---------------------------------------------------------------------------|
B|---------------------------------------------------------------------------|
G|----7------------7------------7--------------------------------------------|
D|-057773030355-057773030355-057773030355-0000-3333-0~-----------------------|
A|-057573030355-057573030355-057573030355-0000-3333-0~-----------------------|
D|-057-73030355-057-73030355-057-73030355-0000-3333-0~-----------------------|

This tab can also be used for artbreaker II

************************************

| /   slide up
| \   slide down
| h   hammer-on
| p   pull-off
| ~   vibrato
| +   harmonic
| x   Mute note
| b   Bend
| pb  Pre-bend
| br  Bend release
| pbr Pre-bend release
| brb Bend release bend

************************************
Добавлено: 10.06.2012
Другие материалы по этой песне:
  • Аккорды и текст

Страница создана 10.06.2012
http://primanota.ru/kids-in-glass-houses/artbreaker-i-chords.htm
Привет, Гость.
Предлагаем пройти революционный курс по гитаре.
Подарок от PrimaNota.Ru, забирай!