PrimaNota.ru - самый крупный в мире бесплатный архив песенных текстов, аккордов, табулатур и нот


Kid Rock - Warrior - текст песни, бас-таба, видео

Регистрация Запомнить меня
Войти через:  Facebook Google Twitter Vk Yandex Mail.ru

Kid Rock - Warrior - текст песни, бас-таба, видео

Печатать
Просмотров: 132
This is my second tab. Some people ask why I would want to write a tab for
a crappy song they put before a movie. I did it because it is a good song.
you don't play during the intro and outro.

      ~= let it ring out

Verse:


G|-----------------------------------------------------------------------|
D|----------------------------------0~~~~~~------------------------------|
A|-0~~~~~~----------------------------------3~~~~~~-1~~~~~~-0~~~~~~------|
E|---------3~~~~~~-1~~~~~~--0~~~~~~--------------------------------------|

Chorus


G|----------------------------------------------------------------X-X-X-X|
D|----------------------------------------------------------------X-X-X-X|
A|--------0-1-0----0-----0---0---0-----------0-1-0----0-----0-----X-X-X-X|
E|-0----3--------3-----3---3---3---3--0----3--------3-----3---3---X-X-X-X|

G|-----------------------------------------------------------------------|
D|-----------------------------------------------------------0-----------|
A|--------0-1-0----0-----0---0---0-----------0-1-0-----3---3-------------|
E|-0----3--------3-----3---3---3---3--0----3--------3--------------------|

Добавлено: 10.06.2012
Другие материалы по этой песне:
  • Аккорды и текст

Страница создана 10.06.2012
http://primanota.ru/kid-rock/warrior-chords.htm
Привет, Гость.
Предлагаем пройти революционный курс по гитаре.
Подарок от PrimaNota.Ru, забирай!