PrimaNota.ru - самый крупный в мире бесплатный архив песенных текстов, аккордов, табулатур и нот


Kid Rock - Rock N Roll Jesus - текст песни, таба, видео

Регистрация Запомнить меня
Войти через:  Facebook Google Twitter Vk Yandex Mail.ru

Kid Rock - Rock N Roll Jesus - текст песни, таба, видео

Печатать
Просмотров: 185
Kid Rock
"Rock N Roll Jesus"
Transcribed by:  Jeff Martin
Tuning:  EADGBE

The WAH stuff is tough (for me), but here goes...
Please make corrections, TIA

Intro:
Rhythm Guitar 1:
F|-----|-----|-----|-----|G
E|-----|-----|-----|-----|U
N|-2-4-|-2-4-|-2-4-|-2-4-|I
D|-2-4-|-2-4-|-2-4-|-2-4-|T
E|-0-2-|-0-2-|-0-2-|-0-2-|A
R|-X-X-|-X-X-|-X-X-|-X-X-|R

Lead Guitar 2: (WAH)
F|---------|--------------------|-----------|G
E|---------|-9/12b13-10---------|-----------|U
N|----7-7--|-------------7-9-7--|------7-7--|I
D|-(9)-9-9-|------------9-----9-|-9~~~--9-9-|T
E|---------|--------------------|-----------|A
R|---------|--------------------|-----------|R cont.

F|-12b14-12-10-12-10----------|G
E|------------------12--10-12-|U
N|--------------------11------|I
D|----------------------------|T
E|----------------------------|A
R|----------------------------|R

Verse:
Rhythm Guitar 1:                          (2nd X)
F|------|------|------|-----|-----|-----:||-----|G
E|------|------|------|-----|-----|-----:||-----|U
N|-2-44-|-2-44-|-4-77-|-6-6-|-5-5-|-4-4-:||-4-4-|I
D|-2-44-|-2-44-|-4-77-|-6-6-|-5-5-|-4-4-:||-4-4-|T
E|-0-22-|-0-22-|-2-55-|-4-4-|-3-3-|-2-2-:||-2-2-|A
R|-X-XX-|-X-XX-|-X-XX-|-X-X-|-X-X-|-X-X-:||-X-X-|R

Lead Guitar 1: (noodle with WAH on in E)
F|------|G
E|------|U
N|-7-7--|I
D|--9-9-|T
E|------|A
R|------|R Use Variations

Pre-Chorus:
Rhythm Guitar 1:
F|-------|-------|----------------------|G
E|-------|-------|----------------------|U
N|-------|-----9-|----------------------|I
D|-5-4-2-|-5-4-9-|----------------------|T
E|-5-4-2-|-5-4-7-|-7-7-7b8-5------------|A
R|-3-2-0-|-3-2-X-|----------7-6-5-0-5-7-|R

Chorus:
Rhythm Guitar 1: Pt.1
F|-----------------|-----------:||---------------|G
E|-----------------|-----------:||---------------|U
N|-----------------|-----------:||-7-9-----------|I
D|-----------------|-----------:||-7-9-----------|T
E|-9-9-9-9-9-7-8-9-|-9-9-9-9-9-:||-5-7-9-9-9-9-9-|A
R|-7-7-7-7-7-5-6-7-|-7-7-7-7-7-:||-----7-7-7-7-7-|R

Lead Guitar 2: Pt.1
F|---------|----------|----------:||----------------|G
E|---------|----------|----------:||-10b12-10-7-----|U
N|---------|----------|----------:||-----------9-7--|I
D|-9-7-7-9-|-99-7-7-9-|-9-7-7-7--:||--------------9-|T
E|----9----|-----9----|----9-9-9-:||----------------|A
R|---------|----------|----------:||----------------|R

Rhythm Guitar 1: Pt.2
F|---------------------|--------------------|G 
E|---------------------|-9b11-9-7-9-7-------|U
N|---------------------|-9b11-9-7-9-7-------|I
D|-7-777777-6-666666-5-|--------------9-7-9-|T
E|-5-555555-4-444444-3-|--------------9-7-9-|A
R|---------------------|--------------7-5-7-|R

Lead Guitar 2:  Pt.2 (on the final A-B-A) WAH ON
F|-------------:||G
E|-10b12b10-10-:||U 2X
N|-------------:||I
D|-------------:||T
E|-------------:||A
R|-------------:||R

Verse 2 = Verse 1
Pre-Chorus 2 = Pre-Chorus 1
Chorus 2 = Chorus 1

(Jeeeesus.....)

Rhythm Guitar 1:
F|-------------|-----------------|G
E|-------------|-----------------|U
N|-4-4-4-4-4-4-|-4-2-------------|I
D|-4-4-4-4-4-4-|----4-2-0--------|T
E|-2-2-2-2-2-2-|---------2-0-0-2-|A
R|-------------|------------2----|R

Lead Guitar 2:

F|-------------|-----------------------|G
E|-------------|-10b12-10-7------------|U
N|-------------|-----------10-9-7------|I
D|-------------|-----------------9-7-9-|T
E|-------------|-----------------------|A
R|-------------|-----------------------|R

Solo:

Rhythm Guitar 1: (Tab's close due to fast chord progression)
F|----------------|-------------|-----------------|G
E|----------------|-------------|-----------------|U
N|----------------|-------------|-----------------|I
D|---4---4--4-4-4-|---4-4-4-4-4-|---4---4--4-4-4--|T
E|-0-2-0-2-020202-|-0-2-2020202-|-0-2-0-2-020202--|A
R|----------------|-------------|-----------------|R Cont...

F|-------------------------|------------|-----------|G
E|-------------------------|------------|-----------|U
N|----------222-999-7-7-77-|------------|-----------|I
D|---4-4444-222-999-7-7-77-|------------|-----------|T
E|-0h2-2222-000-777-5-5-55-|---(4)-5-4-2|---4-5-4-2-|A
R|-------------------------|-0-(2)-3-2-0|-0-2-3-2-0-|R

F|---------------|G
E|---------------|U
N|---------------|I
D|-2b2-2-0-0-----|T
E|--------2--0-2-|A
R|----------2----|R

Lead Guitar 2:
F|----------------------------------|G
E|-17b19-17-15-17-15-14-15-14-10-12-|U
N|----------------------------------|I
D|----------------------------------|T
E|----------------------------------|A
R|----------------------------------|R

Okay, it sounds like a 3rd guitar is rollin'
Seems like this is played prior to Guitar 1:
Guitar 3???
F|------------------------|G
E|------------------------|U
N|-9-11-9-7-9-7-6-7-6-2-4-|I
D|-x-xx-x-x-x-x-x-x-x-x-x-|T
E|-7-09-7-5-7-5-4-5-4-0-2-|A
R|------------------------|R

F|---------------10------------------------------|G
E|-12b(1/4)~10-12--12-12b-12b-12b-12b-12-10------|U
N|-----------------------------------------11-9b~|I
D|-----------------------------------------------|T
E|-----------------------------------------------|A
R|-----------------------------------------------|R

F|----------------------------------|G
E|-17b19-17-15-17-15-14-15-14-10-12-|U
N|----------------------------------|I
D|----------------------------------|T
E|----------------------------------|A
R|----------------------------------|R (Guitar 3 riff plays along)

F|-12b14^^^^^-b12-10---|-17b19b17-14-17-14-12-----|G
E|------------------12-|---------------------12---|U
N|---------------------|-----------------------14-|I
D|---------------------|--------------------------|T
E|---------------------|--------------------------|A
R|---------------------|--------------------------|R

F|-17b19b17-14-17-14-12b13~--|G
E|------------------------12-|U
N|---------------------------|I
D|---------------------------|T
E|---------------------------|A
R|---------------------------|R

F|-17b19b17-14-17-14--14b15-17-14--14-17-14--14-17-14--14-|G
E|------------------17-----------17--------17--------17---|U
N|--------------------------------------------------------|I
D|--------------------------------------------------------|T
E|--------------------------------------------------------|A
R|--------------------------------------------------------|R

F|-17b19b17-14-17-14------|-17b19b17-14-17-14G--------|G
E|------------------17-15-|------------------17b18-15-|U
N|------------------------|---------------------------|I
D|------------------------|---------------------------|T
E|------------------------|---------------------------|A
R|------------------------|---------------------------|R

The rest of the song is in there.  MERCY
Добавлено: 31.05.2012
Другие материалы по этой песне:
  • Аккорды и текст

Страница создана 31.05.2012
http://primanota.ru/kid-rock/rock-n-roll-jesus-chords.htm
Привет, Гость.
Предлагаем пройти революционный курс по гитаре.
Подарок от PrimaNota.Ru, забирай!