PrimaNota.ru - самый крупный в мире бесплатный архив песенных текстов, аккордов, табулатур и нот


Kid Cudi - Screwed - таба, видео

Регистрация Запомнить меня
Войти через:  Facebook Google Twitter Vk Yandex Mail.ru

Kid Cudi - Screwed - таба, видео

Печатать
Просмотров: 29
----------------------------------------------------------------- 
                      Screwed - Kid Cudi 
----------------------------------------------------------------- 

Tabbed by: Gert H Kauniste
Email: gert.kauniste@mail.ee

Tuning: Standard


Chords used:

--------G------B------A------F#-----

e|------3------7------5------2------|
B|------3------7------5------2------|
G|------0------8------6------3------|
D|------0------9------7------4------|
A|------2------9------7------4------|
E|------3------7------5------2------|



Tab:

-----G----------------------------------------------B------A----------

e|--------------------------------------------------7\5----5\2--------|
B|--------------------------------------------------7\5----5\2--------|
G|--------------------------------------------------8\6----6\3--------|
D|-------0---0-------0---0-------0---0--------0-----9\7----7\4--------|
A|-------2-----------2-----------2------------2-----9\7----7\4--------|
E|---3-----------3-----------3-----------3----------7\5----5\2--------|



The song sounds good even without the slide, so you may want to use an easier form of B and A.

Play around and see what suits you :)


************************************

| /   slide up
| \   slide down
| h   hammer-on
| p   pull-off
| ~   vibrato
| +   harmonic
| x   Mute note
| b   Bend
| pb  Pre-bend
| br  Bend release
| pbr Pre-bend release
| brb Bend release bend

************************************
Добавлено: 30.04.2016
Другие материалы по этой песне:
  • Аккорды и текст

Страница создана 30.04.2016
http://primanota.ru/kid-cudi/screwed-chords.htm
Привет, Гость.
Предлагаем пройти революционный курс по гитаре.
Подарок от PrimaNota.Ru, забирай!