PrimaNota.ru - самый крупный в мире бесплатный архив песенных текстов, аккордов, табулатур и нот


Kid Cudi - Return Of The Moon Man - таба, видео

Регистрация Запомнить меня
Войти через:  Facebook Google Twitter Vk Yandex Mail.ru

Kid Cudi - Return Of The Moon Man - таба, видео

Печатать
Просмотров: 138
Уроки эстрадного вокала в Санкт-Петербурге
-------------------------------------------------------------------------------
                             Kid Cudi: Return of the moon man.
-------------------------------------------------------------------------------
Tabbed by: Mathosh

I found this tab of Kid Cudi myself, it's my first tab, easy to play.

Tuning:

e|-----------------------------------------------------------------------------|
B|-----------------------------------------------------------------------------|
G|-----------------------------------------------------------------------------|
D|12-12-12-14-15----15-15-14-15-17----17-17-15-14----15-14-15-17-14-12---------|
A|-----------------------------------------------------------------------------|
E|-----------------------------------------------------------------------------|

e|-----------------------------------------------------------------------------|
B|-----------------------------------------------------------------------------|
G|-----------------------------------------------------------------------------|
D|12-12-14-12----12-12-12-12-14-15----15-17-15----14--15/12--------------------|
A|-----------------------------------------------------------------------------|
E|-----------------------------------------------------------------------------|

e|-----------------------------------------------------------------------------|
B|-----------------------------------------------------------------------------|
G|-----------------------------------------------------------------------------|
D|12-12-12-14-15----17/19----17/15----14/12------------------------------------|
A|-----------------------------------------------------------------------------|
E|-----------------------------------------------------------------------------|

e|-----------------------------------------------------------------------------|
B|-----------------------------------------------------------------------------|
G|-----------------------------------------------------------------------------|
D|12-12-12-14-15----14-15-17-19----17-19-17-15----14/12------------------------|
A|-----------------------------------------------------------------------------|
E|-----------------------------------------------------------------------------|


| /   slide up
| \   slide down
| h   hammer-on
| p   pull-off
| ~   vibrato
| +   harmonic
| x   Mute note
| b   Bend
| pb  Pre-bend
| br  Bend release
| pbr Pre-bend release
| brb Bend release bend

************************************
Добавлено: 10.08.2015
Другие материалы по этой песне:
  • Аккорды и текст

Страница создана 10.08.2015
http://primanota.ru/kid-cudi/return-of-moon-man-chords.htm
Привет, Гость.
Предлагаем пройти революционный курс по гитаре.
Подарок от PrimaNota.Ru, забирай!