PrimaNota.ru - самый крупный в мире бесплатный архив песенных текстов, аккордов, табулатур и нот


Kid Creole And The Coconuts - Lifeboat Party - бас-таба, видео

Регистрация Запомнить меня
Войти через:  Facebook Google Twitter Vk Yandex Mail.ru

Kid Creole And The Coconuts - Lifeboat Party - бас-таба, видео

Печатать
Просмотров: 88
kid_creole_&_the_coconuts/lifeboat_party.btab

Basstab by Jan Bjorklund, Finland; 
jani_bjorklund@yahoo.se 
You are welcome to request for basstabs!
Bienvenidos a pedirme transcripciones para el bajo!
Be sure to use a monospaced font!

TablEdited by Jan Bjorklund
Tuning : B E A D G 	Time Signature: 4/4

 |       |       |       |        |       |       |       |        
|--------------------------------|--------------------------------|
|--------------------------------|--------------------------------|
|2-------2-------1-------1-------|--------------------------------|
|--------------------------------|--------------------2-------2---|
|--------------------------------|4-------4-------4---------------|

 |       |       |       |        |       |       |       |        
|--------------------------------|--------------------------------|
|--------------------------------|--------------------------------|
|2-------2-------1-------1-------|--------------------------------|
|--------------------------------|------------------------1---2---|
|--------------------------------|4-------4-------4---4-----------|

 |       |       |       |        |       |       |       |        
|--------------------------------|--------------------------------|
|--------------------------------|--------------------------------|
|2-------2-------1-------1-------|--------------------------------|
|--------------------------------|--------------------2---2---2---|
|--------------------------------|4-------4-------4---------------|

 |       |       |       |        |       |       |       |        
|--------------------------------|--------------------------------|
|--------------------------------|--------------------------------|
|2-------2-------1-------1-------|--------------------------------|
|--------------------------------|------------------------1---2---|
|--------------------------------|4-------4-------4---4-----------|

 |       |       |       |        |       |       |       |        
|--------------------------------|--------------------------------|
|--------------------------------|--------------------------------|
|2-------2-------1-------1-------|--------------------------------|
|--------------------------------|--------------------2---2---2---|
|--------------------------------|4-------4-------4---------------|

 |       |       |       |        |       |       |       |        
|--------------------------------|--------------------------------|
|--------------------------------|--------------------------------|
|2-------2-------1-------1-------|--------------------------------|
|--------------------------------|------------------------1---2---|
|--------------------------------|4-------4-------4---4-----------|

 |       |       |       |        |       |       |       |        
|--------------------------------|--------------------------------|
|--------------------------------|--------------------------------|
|2-------2-------1-------1-------|--------------------------------|
|--------------------------------|--------------------2---2---2---|
|--------------------------------|4-------4-------4---------------|

 |       |       |       |        |       |       |       |        
|--------------------------------|--------------------------------|
|--------------------------------|--------------------------------|
|2-------2-------1-------1-------|--------------------------------|
|--------------------------------|------------------------1---2---|
|--------------------------------|4-------4-------4---4-----------|

 |       |       |       |        |       |       |       |        
|--------------------------------|--------------------------------|
|----------------------------and so on....------------------------|
|--------------------------------|--------------------------------|
|--------------------------------|--------------------------------|
|--------------------------------|--------------------------------|

Transcribe! 6.0 transcription http://www.seventhstring.demon.co.uk/
Created with TablEdit http://www.tabledit.com/

_____________________________________________________
     
Добавлено: 04.06.2013
Другие материалы по этой песне:
  • Аккорды и текст

Страница создана 04.06.2013
http://primanota.ru/kid-creole-and-the-coconuts/lifeboat-party-chords.htm
Привет, Гость.
Предлагаем пройти революционный курс по гитаре.
Подарок от PrimaNota.Ru, забирай!