PrimaNota.ru - самый крупный в мире бесплатный архив песенных текстов, аккордов, табулатур и нот


Kid Astray - Its Alright - таба, видео

Регистрация Запомнить меня
Войти через:  Facebook Google Twitter Vk Yandex Mail.ru

Kid Astray - Its Alright - таба, видео

Печатать
Просмотров: 124
 Kid Astray - It's Alright

Standard Tuning


x = Mute    / = Slide (_) = Where to       I = End of Section


e-----------------------------------------------------------------------------------------------------------|
B-----------------------------------------------------------------------------------------------------------|
G-----------------------------------------------------------------------------------------------------------|
D-------------------------------8---------------------------------------------------8-----------------------|
A----6-------------------------6------------------2--2--6--------------------------6------------------2--2--|
E--------6--7--2-------2-6/(9)----6--7--2----4--------------6--7--2-------2-6/(9)-----6--7--2----4----------|


*Vocal Starts - Verse(s)

e------------------------------------------------------------------------------------------------------------|
B------------------------------------------------------------------------------------------------------------|
G------------------------------------------------------------------------------------------------------------|
D-------------------------------8----------------------------------------------------8-----------------------|
A----6-------------------------6------------------2--2--6---------------------------6------------------2--2--|
E--------6--7--2-------2-6/(9)----6--7--2----4---------------6--7--2-------2-6/(9)-----6--7--2----4----------|

e----------------------------------------------------------------------------------------------------|
B----------------------------------------------------------------------------------------------------|
G----------------------------------------------------------------------------------------------------|
D------------------4---------8-------------------------------------4---------8-----------------------|
A----6----------------------6------------------2--2--6----------------------6------------------2--2--|
E--------6--7--2------4/(6)----6--7--2----4--------------6--7--2------4/(6)----6--7--2----4----------|

e-----------------------------------------------------------------------------------------------------|I
B-----------------------------------------------------------------------------------------------------|I
G-----------------------------------------------------------------------------------------------------|I
D------------------4---------8-------------------------------------4---------8------------------------|I
A----6----------------------6------------------2--2--6----------------------6------------------2--2---|I
E--------6--7--2------4/(6)----6--7--2----4--------------6--7--2------4/(6)----6--7--2----4-----------|I


Chorus chords


    Its's    All    Right!....


e----7--------7-------6----------7--7----6--6-----6-6----4--7--------7----7--7----6--6-----6--4---4--|
B----7--------7-------7----------7--7----7--7-----7-7----6--7--------7----7--7----7--7-----7--6---6--|
G----6--------6-------6----------6--6----6--6-----6-6----6--6--------6----6--6----6--6-----6--6---6--|
D----x--------x-------x----------x--x----x--x-----x-x----6--x--------x----x--x----x--x-----x--6---6--|
A----x--------x-------x----------x--x----x--x-----x-x----x--x--------x----x--x----x--x-----x--x---x--|
E----x--------x-------x----------x--x----x--x-----x-x----x--x--------x----x--x----x--x-----x--x---x--|


e----6----4--4----6---6---6--6--4---6----4--4----6---6---6--6--4----|I
B----7----4--4----7---7---7--7--6---7----4--4----7---7---7--7--6----|I
G----6----4--4----8---8---8--8--6---6----4--4----8---8---8--8--6----|I
D----x----x--x----8---8---8--8--6---x----x--x----8---8---8--8--6----|I
A----x----x--x----x---x---x--x--x---x----x--x----x---x---x--x--x----|I
E----x----x--x----x---x---x--x--x---x----x--x----x---x---x--x--x----|I


Synth Solo Thing  - Lead Part

e---------------------------------------------------------------------------------------|
B--------14--11-----------------------------------11------------------------------------|
G---------------13-11-------------11-10--------------13-11-13---------------------------|
D----13---------------11-11-11----------13-11-----------------11-11-11------13-11-------|
A------------------------------13-------------13-----------------------13---------13-11-|
E---------------------------------------------------------------------------------------|


e-----------------------------------------------------------------------------------|I
B----14--11-----------------------------------11------------------------------------|I
G-----------13-11--------------11-10-------------13-11-13---------------------------|I
D-----------------11--11-11----------13-11----------------11-11-11----11-10---------|I
A---------------------------13-------------13----------------------13-------13-11---|I
E-----------------------------------------------------------------------------------|I


Bridge Chords

e----2----2--2----4---6---6--6---6--6---4--4---4--4---2--|
B----4----4--4----4---6---7--7---7--7---6--6---6--6---4--|
G----4----4--4----4---6---8--8---8--8---6--6---6--6---4--|
D----4----4--4----6---8---8--8---8--8---6--6---6--6---4--|
A----2----2--2----6---8---6--6---6--6---4--4---4--4---2--|
E----x----x--x----4---6---x--x---x--x---x--x---x--x---x--|

e----2---2--2---2--2---4---6--6---6--6---4--4---4--4---2--2--2---|I
B----4---4--4---4--4---4---6--7---7--7---6--6---6--6---4--4--4---|I
G----4---4--4---4--4---4---6--8---8--8---6--6---6--6---4--4--4---|I
D----4---4--4---4--4---6---8--8---8--8---6--6---6--6---4--4--4---|I
A----2---2--2---2--2---6---8--6---6--6---4--4---4--4---2--2--2---|I
E----x---x--x---x--x---4---6--x---x--x---x--x---x--x---x--x--x---|I
Добавлено: 09.11.2015
Вам также может быть интересно:
Другие материалы по этой песне:
  • Аккорды и текст

Страница создана 09.11.2015
http://primanota.ru/kid-astray/its-alright-chords.htm
Привет, Гость.
Предлагаем пройти революционный курс по гитаре.
Подарок от PrimaNota.Ru, забирай!