PrimaNota.ru - самый крупный в мире бесплатный архив песенных текстов, аккордов, табулатур и нот


Kid Abelha - Nada Sei - аккорды и текст, видео

Регистрация Запомнить меня
Войти через:  Facebook Google Twitter Vk Yandex Mail.ru

Kid Abelha - Nada Sei - аккорды и текст, видео

Печатать
Просмотров: 105
Nada Sei
Kid Abelha
Intro:
        E     E/D#      C#m    C#m/B   F#m      B
E|---4/5\4-------4/5\4--------4---------------------------|
B|---------7-5---------7-5------7-5--------5-4---5-7------|
G|-----------------------------------6--------------------|
D|--------------------------------------------------------|
A|--------------------------------------------------------|
E|--------------------------------------------------------|


E     E/D#  C#m    C#m/B
 Nada sei    dessa vida
F#m         B
 Vivo sem saber
E      E/D#   C#m      C#m/B
 Nunca soube, nada saberei
F#m         B
 Sigo sem saber
      F#m        B
Que lugar me pertence
       F#m    Abm A B
Que eu possa abandonar
      F#m         B
Que lugar me contém
    F#m   Abm A B
Que possa me parar

       A          E
Sou errada, sou errante
              F#m
Sempre na estrada
          B
Sempre distante
       F#m             Am          E E/D#  C#m C#m/B
Vou errando enquanto o tempo me deixar
       F#m             Am          E E/D#  C#m C#m/B   F#m   B
Vou errando enquanto o tempo me deixar

E     E/D#  C#m    C#m/B
 Nada sei    desse mar
F#m         B
 Nado sem saber
E        E/D#   C#m   C#m/B
 De seus peixes, suas perdas
F#m         B
 De seu não respirar
      F#m         B
Nesse mar os segundos
  F#m       Abm A  B
Insistem em naufragar
     F#m       B
Esse mar me seduz
      F#m      Abm A B
Mas é só pra me afogar

       A          E
Sou errada, sou errante
              F#m
Sempre na estrada
          B
Sempre distante
       F#m             Am          E E/D#  C#m C#m/B
Vou errando enquanto o tempo me deixar
       F#m             Am          E B/D#  C#m C#m/B   F#m   B
Vou errando enquanto o tempo me deixar

Solo 1:
E|-------------------------------------------------------------|
B|--9b11-7-----9b11-7----9p7--------5------5-7-----------------|
G|---------9----------9------9--4/6---6/8----------------------|      
D|-------------------------------------------------------------|       
A|-------------------------------------------------------------|
E|-------------------------------------------------------------|

Solo 2:
E|-----------------------------------7----7--------------------|
B|--9b11---7-----9---------5---5-------------------------------|
G|-------9---8-9---9--4/6----6---6/8----8----------------------|
D|-------------------------------------------------------------|
A|-------------------------------------------------------------|
E|-------------------------------------------------------------|

Solo 3:
E|--5p4---7--5p4---5--------------------5p4---7--5p4---7-4-----|
B|------5--------5---7-5------5-----5-7-----5--------5-----7-5-|
G|-----------------------4/6----6/8----------------------------|
D|-------------------------------------------------------------|
A|-------------------------------------------------------------|
E|-------------------------------------------------------------|

E|-------------------------------------------------------------|
B|------5-----5-7----------------------------------------------|
G|--4/6---6/8--------------------------------------------------|
D|-------------------------------------------------------------|
A|-------------------------------------------------------------|
E|-------------------------------------------------------------|

Intro:
        E     E/D#      C#m    C#m/B   F#m      B
E|---4/5\4-------4/5\4--------4---------------------------|
B|---------7-5---------7-5------7-5--------5-4---5-7------|
G|-----------------------------------6--------------------|
D|--------------------------------------------------------|
A|--------------------------------------------------------|
E|--------------------------------------------------------|


       A          E
Sou errada, sou errante
              F#m
Sempre na estrada
          B
Sempre distante
       A          E
Sou errada, sou errante
              F#m
Sempre na estrada
          B
Sempre distante
       F#m             Am          E E/D#  C#m C#m/B
Vou errando enquanto o tempo me deixar
       F#m             Am          E E/D#  C#m C#m/B   F#m   B
Vou errando enquanto o tempo me deixar

www.kidabelha.com.br
Добавлено: 03.07.2012
Вам также может быть интересно:
Другие материалы по этой песне:
  • Аккорды и текст

Страница создана 03.07.2012
http://primanota.ru/kid-abelha/nada-sei-chords.htm
Привет, Гость.
Предлагаем пройти революционный курс по гитаре.
Подарок от PrimaNota.Ru, забирай!