PrimaNota.ru - самый крупный в мире бесплатный архив песенных текстов, аккордов, табулатур и нот


Kicking Harold - Gasoline - таба, видео

Регистрация Запомнить меня
Войти через:  Facebook Google Twitter Vk Yandex Mail.ru

Kicking Harold - Gasoline - таба, видео

Печатать
Просмотров: 174
http://www.kickingharold.com/
-------------------------------------------------------------------------------
                             Gasoline – Kicking Harold
-------------------------------------------------------------------------------
Tabbed by: Tischler
Email: Tomtischler@gmail.com

Tuning: Dropped D (DADGBE)

Intro

e|--------------|
B|--------------|
G|------------5-|
D|3-0-0-3-0-0-5-|
A|3-0-0-3-0-0-3-|
E|3-0-0-3-0-0---|

Verse

e|--------------------|
B|--------------------| Played on an acoustic with no bass,
G|--------------------| like the vocals here
D|3-0-0-0-0-3-0-0-0-0-| X4
A|3-0-0-0-0-3-0-0-0-0-|
E|3-0-0-0-0-3-0-0-0-0-|

Chorus

Its crucial to play short notes all with breaks in between them.
e|--------------------------------------------|
B|--------------------------------------------|
G|------------------------------------------5-|
D|3-0-0-0-0-3-0-0-0-0-3-0-0-0-0-3-0-0-3-0-0-5-|X2
A|3-0-0-0-0-3-0-0-0-0-3-0-0-0-0-3-0-0-3-0-0-3-|
E|3-0-0-0-0-3-0-0-0-0-3-0-0-0-0-3-0-0-3-0-0---|

e|------------------------------------------------------------------------|
B|------------------------------------------------------------------------|
G|---------5555-555------------------------------5555-555-----------------|
D|3333-333-5555-555-3-0-0-0-0-3-0-0-0-0-3333-333-5555-555-3-0-0-0-0-3-0-0-|
A|3333-333-3333-333-3-0-0-0-0-3-0-0-0-0-3333-333-3333-333-3-0-0-0-0-3-0-0-|
E|3333-333----------3-0-0-0-0-3-0-0-0-0-3333-333----------3-0-0-0-0-3-0-0-|

Verse

Chorus

Bridge

Guitar 1
e|---------------------------------|
B|33333333555555556666666688888888-|
G|00000000000000000000000000000000-|
D|---------------------------------|
A|---------------------------------|
E|---------------------------------|

Guitar 2
e|---------------|
B|---------------|
G|---------------|
D|-3-2--5-3-2--5-|
A|---------------|
E|---------------|

Thats pretty much it. Im still working on that little solo, but I am pretty sure its in 
pentatonic. Feel free to correct me on any of this e_mail is at the top

| /  slide up
| \  slide down
| h  hammer-on
| p  pull-off
| ~  vibrato
| +  harmonic
| x  Mute note
===============================================================================
Добавлено: 26.06.2012
Вам также может быть интересно:
Другие материалы по этой песне:

Страница создана 29.05.2012
http://primanota.ru/kicking-harold/gasoline-chords.htm
Привет, Гость.
Предлагаем пройти революционный курс по гитаре.
Подарок от PrimaNota.Ru, забирай!