PrimaNota.ru - самый крупный в мире бесплатный архив песенных текстов, аккордов, табулатур и нот


Kicking Daisies - Masquerade Pretty In Pink - аккорды и текст, видео

Регистрация Запомнить меня
Войти через:  Facebook Google Twitter Vk Yandex Mail.ru

Kicking Daisies - Masquerade Pretty In Pink - аккорды и текст, видео

Печатать
Просмотров: 107
Masquerade Pretty In Pink
Kicking Daisies
Masquerade (Pretty in Pink)
Kicking Daisies
Tabbed by Duran Visek

Tuning:E flat

Website:
www.kickingdaisies.com

Key
~ Let Ring
x Mute
* Palm mate

Intro
       F
e------0~~--------------1~-------------0-0---0-0---0-------|
B------1~~----------------1~-----------1-1---1-1---1-------|
G------0~~------------------0~---------0-0---0-0---0-------|
D------3~~--------------------3~-------3-3---3-3---3-------|
A------3~~----------------------3~-----3-3---3-3---3-------|
E------X---------------------------1~--x-x---x-x---x-------|

e--0-0---0-0-0-0----------------------------------------------|
B--1-1---1-1-1-1----------------------------------------------|
G--0-0---0-0-0-0----------------------------------------------|
D--3-3---3-3-3-3----------------------------------------------|
A--3-3---3-3-3-3----------------------------------------------|
E--x-x---x-x-x-x----------------------------------------------|

Verse 1

C                                   C7M   
tatoos tell the world her name, Its not the one her parents gave.
F
Her daddy left when she was 9, and that was just about the time.
C                                   C7M  
Says she's never read a book, the street is where she somehow got her look
F
16 such a crazy time, being different is not a crime

(Play this During the F chord Parts)
e-------------------------------------------------------------------|
B-------------------------------------------------------------------|
G-------------------------------------------------------------------|
D---3-3-3-3-3-3-3-3-3-3-3-3-3-3-3-3-3-3-3-3-3-3-3-3-3-3-3-3-3-3-3-3-|
A---3-3-3-3-3-3-3-3-3-3-3-3-3-3-3-3-3-3-3-3-3-3-3-3-3-3-3-3-3-3-3-3-|
E---1-1-1-1-1-1-1-1-1-1-1-1-1-1-1-1-1-1-1-1-1-1-1-1-1-1-1-1-1-1-1-1-|
    * * * * * * * * * * * * * * * * * * * * * * * * * * * * * * * * 
Pre-Chorus

Dm                     F         C                     G
It's a finger to the world, Push away what you've been told
          Dm                     F
Cause you can't turn back no you can't turn back...

Chorus

C                                F
Pretty in Pink, a masquerade the party's started the worlds a stage

Am               Em              F
Teenage dreams of better days are all rolled into one

C                              F
Pretty in pink a circus trip 3 rings around black finger tips

Am                        Em        F                     
changing like the setting sun, lets fight until we've one

  Gsus4       G              Uhhhh!
e----x--------x-----------------------------------------------|
B----x--------x-----------------------------------------------|
G----5~-------4~----------------------------------------------|
D----5~-------5~----------------------------------------------|
A----5~-------5~----------------------------------------------|
E----x~-------x~----------------------------------------------|

Re-Intro
   F
e--0-0---0-0---0-----0-0---0-0-0-0----------------------------|
B--1-1---1-1---1-----1-1---1-1-1-1----------------------------|
G--0-0---0-0---0-----0-0---0-0-0-0----------------------------|
D--3-3---3-3---3-----3-3---3-3-3-3----------------------------|
A--3-3---3-3---3-----3-3---3-3-3-3----------------------------|
E--x-x---x-x---x-----x-x---x-x-x-x----------------------------|

Verse 2

C                       C7M  
not afraid to be herself, the past sits there upon the shelf
F
collecting dust with fading grace no such thing as out of place
C                                  C7M  
teaches lessons that we should learn, to never let the candle ever burn
F
from both ends its twice as fast, she learned to make the good things last

(Play this During the F chord Parts)
e-------------------------------------------------------------------|
B-------------------------------------------------------------------|
G-------------------------------------------------------------------|
D---3-3-3-3-3-3-3-3-3-3-3-3-3-3-3-3-3-3-3-3-3-3-3-3-3-3-3-3-3-3-3-3-|
A---3-3-3-3-3-3-3-3-3-3-3-3-3-3-3-3-3-3-3-3-3-3-3-3-3-3-3-3-3-3-3-3-|
E---1-1-1-1-1-1-1-1-1-1-1-1-1-1-1-1-1-1-1-1-1-1-1-1-1-1-1-1-1-1-1-1-|
    * * * * * * * * * * * * * * * * * * * * * * * * * * * * * * * * 

Pre-Chorus

Dm                 F                  C                G
by living from within, and leave your trust to someone else
          Dm                    F
cause you cant turn back no you cant turn back

Chorus

C                                F
Pretty in Pink, a masquerade the party's started the worlds a stage

Am                Em              F
Teenage dreams of better days are all rolled into one

C                              F
Pretty in pink a circus trip 3 rings around black finger tips

Am                        Em        F                    Gsus4     G
changing like the setting sun, lets fight until we've one          

Bridge

Downstroke and Palm mute the whole time
e-------------------------------------------------------------------|
B-------------------------------------------------------------------|
G-------------------------------------------------------------------|
D-------------------3-3-3-3-3-3-3-3-5-5-5-5-5-5-5-5-5-5-5-5-5-5-5-5-|
A---3-3-3-3-3-3-3-3-3-3-3-3-3-3-3-3-5-5-5-5-5-5-5-5-5-5-5-5-5-5-5-5-|
E---0-0-0-0-0-0-0-0-1-1-1-1-1-1-1-1-3-3-3-3-3-3-3-3-3-3-3-3-3-3-3-3-|

    Em              F               G
you cant turn back...                                   oh oOo ohhh

you cant turn back...           you cant turn ba...ack

you cant turn back. you cant turn back. you cant turn back.

you cant turn back. you cant turn back. you cant turn back. you cant turn back!

Solo over Chorus
      C                                               F
e-------------------------------------------------------------------|
B-----------------------------------1-1-1-1-1-1-1-1-1-1-1-1-1-1-1-1-|
G---5-5-5-5-5-5-5-5-5-5-5-5-5-5-5-5-0-0-0-0-0-0-0-0-0-0-0-0-0-0-0-0-|
D---5-5-5-5-5-5-5-5-5-5-5-5-5-5-5-5-3-3-3-3-3-3-3-3-3-3-3-3-3-3-3-3-|
A---3-3-3-3-3-3-3-3-3-3-3-3-3-3-3-3-3-3-3-3-3-3-3-3-3-3-3-3-3-3-3-3-|
E-----------------------------------x-x-x-x-x-x-x-x-x-x-x-x-x-x-x-x-|
      Am     Am     Em   Em     Em    F
e---0-0---0-0----0---0-0---0-0---x~-------------------------------|
B---1-1---1-1----0---0-0---0-0---1~---1-1-1-1-1-1-1-1-1-1-1-1-1-1-|
G---2-2---2-2----0---0-0---0-0---0~---0-0-0-0-0-0-0-0-0-0-0-0-0-0-|
D---2-2---2-2----2---2-2---2-2---3~---3-3-3-3-3-3-3-3-3-3-3-3-3-3-|
A---0-0---0-0----2---2-2---2-2---3~---3-3-3-3-3-3-3-3-3-3-3-3-3-3-|
E----------------0---0-0---0-0---x~-------------------------------|

      C                                               F
e-------------------------------------------------------------------|
B-----------------------------------1-1-1-1-1-1-1-1-1-1-1-1-1-1-1-1-|
G---5-5-5-5-5-5-5-5-5-5-5-5-5-5-5-5-0-0-0-0-0-0-0-0-0-0-0-0-0-0-0-0-|
D---5-5-5-5-5-5-5-5-5-5-5-5-5-5-5-5-3-3-3-3-3-3-3-3-3-3-3-3-3-3-3-3-|
A---3-3-3-3-3-3-3-3-3-3-3-3-3-3-3-3-3-3-3-3-3-3-3-3-3-3-3-3-3-3-3-3-|
E-----------------------------------x-x-x-x-x-x-x-x-x-x-x-x-x-x-x-x-|

      Am     Am     Em   Em     Em    F
e---0-0---0-0----0---0-0---0-0---x~-------------------------------|
B---1-1---1-1----0---0-0---0-0---1~---1-1-1-1-1-1-1-1-1-1-1-1-1-1-|
G---2-2---2-2----0---0-0---0-0---2~---2-2-2-2-2-2-2-2-2-2-2-2-2-2-|
D---2-2---2-2----2---2-2---2-2---3~---3-3-3-3-3-3-3-3-3-3-3-3-3-3-|
A---0-0---0-0----2---2-2---2-2---3~---3-3-3-3-3-3-3-3-3-3-3-3-3-3-|
E----------------0---0-0---0-0---x~-------------------------------|

Chorus

C                                            F
Pretty in Pink, a masquerade the party's started the worlds a stage
Am                 Em              F
Teenage dreams of better days are all rolled into one
e---0-0---0-0----0---0-0---0-0---x~-----------------------|
B---1-1---1-1----0---0-0---0-0---1~-----------------------|
G---2-2---2-2----0---0-0---0-0---2~-----------------------|
D---2-2---2-2----2---2-2---2-2---3~-----------------------|
A---0-0---0-0----2---2-2---2-2---3~-----------------------|
E----------------0---0-0---0-0---x~-----------------------|
C                                     F
Pretty in pink a circus trip three rings around black finger tips
Am                        Em        F                  G
changing like the setting sun, lets fight until we've one

      Am     Am     Em   Em     Em F   
e---0-0---0-0----0---0-0---0-0-0-0-0~-------------------------------|
B---1-1---1-1----0---0-0---0-0-0-0-1~-------------------------------|
G---2-2---2-2----0---0-0---0-0-0-0-0~-------------------------------|
D---2-2---2-2----2---2-2---2-2-2-2-3~-------------------------------|
A---0-0---0-0----2---2-2---2-2-2-2-3~-------------------------------|
E----------------0---0-0---0-0-0-0-x--------------------------------|

Questions & Comments?

Duranzilla@gmail.com
http://www.myspace.com/yuppnot
http://www.facebook.com/profile.php?ref=profile&id=1076358368
http://twitter.com/Duranzilla

Duran Visek
Lead Singer/Rhythm Guitarist
Kicking Daisies
Добавлено: 24.03.2012
Вам также может быть интересно:
Другие материалы по этой песне:
  • Аккорды и текст

Страница создана 24.03.2012
http://primanota.ru/kicking-daisies/masquerade-pretty-in-pink-chords.htm
Привет, Гость.
Предлагаем пройти революционный курс по гитаре.
Подарок от PrimaNota.Ru, забирай!