PrimaNota.ru - самый крупный в мире бесплатный архив песенных текстов, аккордов, табулатур и нот


Kickball - Til Death - таба, видео

Регистрация Запомнить меня
Войти через:  Facebook Google Twitter Vk Yandex Mail.ru

Kickball - Til Death - таба, видео

Печатать
Просмотров: 20
-------------------------------------------------------------------------------
                             Til death - Kickball
-------------------------------------------------------------------------------
Tabbed by: Jason
E-mail:

Tuning:Tracked in B, played in C.

D|----------------------|
A|----------------------|
F|----------------------|
C|2----2----2----2--2-2-|
G|2----2----2----2--2-2-|
C|2----2----2----2--2-2-|
                    x x

D|-----------------------------------------------------------------------------------------------------|
A|-----------------------------------------------------------------------------------------------------|
F|-----------------------------------------------------------------------------------------------------|
C|2--2-2--2--3--3-3--3--3-3-2--2-2--5--3--3-3--3--3-3-2--2-2--2--3--3-3--3--3-3-6---5---3----3--3--3-3-|
G|2--2-2--2--3--3-3--3--3-3-2--2-2--5--3--3-3--3--3-3-2--2-2--2--3--3-3--3--3-3-6---5---3----3--3--3-3-|
C|2--2-2--2--3--3-3--3--3-3-2--2-2--5--3--3-3--3--3-3-2--2-2--2--3--3-3--3--3-3-6---5---3----3--3--3-3-|
     x                  x x    x                  x x    x                  x x                    x x

D|-----------------------------------------------------------------------------------------------------|
A|-----------------------------------------------------------------------------------------------------|
F|-----------------------------------------------------------------------------------------------------|
C|2--2-2--2--3--3-3--3--3-3-2--2-2--5--3--3-3--3--3-3-2--2-2--2--3--3-3--3--3-3-3---2---0----0--0--0-0-|
G|2--2-2--2--3--3-3--3--3-3-2--2-2--5--3--3-3--3--3-3-2--2-2--2--3--3-3--3--3-3-3---2---0----0--0--0-0-|
C|2--2-2--2--3--3-3--3--3-3-2--2-2--5--3--3-3--3--3-3-2--2-2--2--3--3-3--3--3-3-3---2---0----0--0--0-0-|
     x                  x x    x                  x x    x                  x x              x  x  x x        

D|----------------------------------------------------------------------|
A|----------------------------------------------------------------------|
F|----------------------------------------------------------------------|
C|2----2--2--2--2--2--2-2-3----3--3--3--3--3--3-3-6---5---3----3--3--3-3|
G|2----2--2--2--2--2--2-2-3----3--3--3--3--3--3-3-6---5---3----3--3--3-3|
C|2----2--2--2--2--2--2-2-3----3--3--3--3--3--3-3-6---5---3----3--3--3-3|
       x  x  x                 x  x  x                               x x

D|----------------------------------------------------------------------|
A|----------------------------------------------------------------------|
F|----------------------------------------------------------------------|
C|2----2--2--2--2--2--2-2-3----3--3--3--3--3--3-3-6---5---3----6--5--3--|
G|2----2--2--2--2--2--2-2-3----3--3--3--3--3--3-3-6---5---3----6--5--3--|
C|2----2--2--2--2--2--2-2-3----3--3--3--3--3--3-3-6---5---3----6--5--3--|
       x  x  x                 x  x  x                               

D|----------------------------------------------------------------------------------------------|
A|----------------------------------------------------------------------------------------------|
F|----------------------------------------------------------------------------------------------|
C|2----2--2--2--2--2--2-2-3--3--3--5----5--5--5-5-6----6--6--6--6--6--6-6-6--5----3----3--3--3-3|
G|2----2--2--2--2--2--2-2-3--3--3--5----5--5--5-5-6----6--6--6--6--6--6-6-6--5----3----3--3--3-3|
C|2----2--2--2--2--2--2-2-3--3--3--5----5--5--5-5-6----6--6--6--6--6--6-6-6--5----3----3--3--3-3|


D|----------------------------------------------------------------------------------------------|
A|----------------------------------------------------------------------------------------------|
F|----------------------------------------------------------------------------------------------|
C|2----2--2--2--2--2--2-2-3--3--3--5----5--5--5-5-8----8--8--8--8--8--8-8-6--5----3----3--3--3-3|
G|2----2--2--2--2--2--2-2-3--3--3--5----5--5--5-5-8----8--8--8--8--8--8-8-6--5----3----3--3--3-3|
C|2----2--2--2--2--2--2-2-3--3--3--5----5--5--5-5-8----8--8--8--8--8--8-8-6--5----3----3--3--3-3|

D|------------------------------------------------------------------------|
A|------------------------------------------------------------------------|
F|------------------------------------------------------------------------|
C|0h2---2--2--2--2--2--2-2-2h3---3--3--3--3--3--3-3-6---5---6---5---0--3--|
G|0h2---2--2--2--2--2--2-2-2h3---3--3--3--3--3--3-3-6---5---6---5---0--3--|
C|0h2---2--2--2--2--2--2-2-2h3---3--3--3--3--3--3-3-6---5---6---5---0--3--|
        x  x  x                  x  x  x

D|------------------------------------------------------------------------|
A|------------------------------------------------------------------------|
F|------------------------------------------------------------------------|
C|0h2---2--2--2--2--2--2-2-2h3---3--3--3--3--3--3-3-6---5---6---5---0--3--|
G|0h2---2--2--2--2--2--2-2-2h3---3--3--3--3--3--3-3-6---5---6---5---0--3--|
C|0h2---2--2--2--2--2--2-2-2h3---3--3--3--3--3--3-3-6---5---6---5---0--3--|
        x  x  x                  x  x  x

D|------------------------------------------------------------------------|
A|------------------------------------------------------------------------|
F|------------------------------------------------------------------------|
C|0h2---2--2--2--2--2--2-2-2h3---3--3--3--3--3--3-3-6---5---6---5---0--3--|
G|0h2---2--2--2--2--2--2-2-2h3---3--3--3--3--3--3-3-6---5---6---5---0--3--|
C|0h2---2--2--2--2--2--2-2-2h3---3--3--3--3--3--3-3-6---5---6---5---0--3--|
        x  x  x                  x  x  x

D|------------------------------------------------------------------------|
A|------------------------------------------------------------------------|
F|------------------------------------------------------------------------|
C|0h2---2--2--2--2--2--2-2-2h3---3--3--3--3--3--3-3-6---5---6---5---0--3--|
G|0h2---2--2--2--2--2--2-2-2h3---3--3--3--3--3--3-3-6---5---6---5---0--3--|
C|0h2---2--2--2--2--2--2-2-2h3---3--3--3--3--3--3-3-6---5---6---5---0--3--|
        x  x  x                  x  x  x

D|-------------------------------------------------------------------------------|
A|-------------------------------------------------------------------------------|
F|-------------------------------------------------------------------------------|
C|6---5---6---5---0--3--6---5---6---5---0--3--6------5------6------5------0----3-|
G|6---5---6---5---0--3--6---5---6---5---0--3--6------5------6------5------0----3-|
C|6---5---6---5---0--3--6---5---6---5---0--3--6------5------6------5------0----3-|

D|---------------------------------------------------------------------------------------------|
A|---------------------------------------------------------------------------------------------|
F|---------------------------------------------------------------------------------------------|
C|3--2--2--2--2--3--3--3--3--2--2--2--2--8--7--5--3--2--2--2--2--2--2--3--0----1--0----1--0--3-|
G|3--2--2--2--2--3--3--3--3--2--2--2--2--8--7--5--3--2--2--2--2--2--2--3--0----1--0----1--0--3-|
C|3--2--2--2--2--3--3--3--3--2--2--2--2--8--7--5--3--2--2--2--2--2--2--3--0----1--0----1--0--3-|
        x  x  x                 x  x  x                 x  x  x  x  x     x       x       x

D|--------------------------------------------------------------------------------------------------|
A|--------------------------------------------------------------------------------------------------|
F|--------------------------------------------------------------------------------------------------|
C|3--2--2--2--2--3--3--3--3--2--2--2--2--8--7--5--3--2--2--2--2--2--2--3--0----1--0----1--0--3--3--2|
G|3--2--2--2--2--3--3--3--3--2--2--2--2--8--7--5--3--2--2--2--2--2--2--3--0----1--0----1--0--3--3--2|
C|3--2--2--2--2--3--3--3--3--2--2--2--2--8--7--5--3--2--2--2--2--2--2--3--0----1--0----1--0--3--3--2|
        x  x  x                 x  x  x                 x  x  x  x  x     x       x       x

************************************

| /   slide up
| \   slide down
| h   hammer-on
| p   pull-off
| ~   vibrato
| +   harmonic
| x   Mute note
| b   Bend
| pb  Pre-bend
| br  Bend release
| pbr Pre-bend release
| brb Bend release bend

************************************
Добавлено: 07.06.2016
Другие материалы по этой песне:
  • Аккорды и текст

Страница создана 07.06.2016
http://primanota.ru/kickball/til-death-chords.htm
Привет, Гость.
Предлагаем пройти революционный курс по гитаре.
Подарок от PrimaNota.Ru, забирай!