PrimaNota.ru - самый крупный в мире бесплатный архив песенных текстов, аккордов, табулатур и нот


Kickball - Skin Deep - таба, видео

Регистрация Запомнить меня
Войти через:  Facebook Google Twitter Vk Yandex Mail.ru

Kickball - Skin Deep - таба, видео

Печатать
Просмотров: 29
Уроки эстрадного вокала в Санкт-Петербурге
-------------------------------------------------------------------------------
                             Skin Deep - Kickball
-------------------------------------------------------------------------------
Tabbed by: Jason
E-mail:

Tuning:Tracked in B played in C

Bass part 2x

D|-------------------------------------------------------------------------|
A|-------4------------5----------------4------------5----------------------|
F|-------4------------5----------------4------------5----------------------|
C|3---2--------3---2------3--2--3---2--------3---2-------2--3--5--5--3--3--|
G|3---2--------3---2------3--2--3---2--------3---2-------2--3--5--5--3--3--|
C|3---2--------3---2------3--2--3---2--------3---2-------2--3--5--5--3--3--|

D|-------------------------------------------------------------------------|
A|-------4-----------5-----------------4------------5----------------------|
F|-------4-----------5-----------------4------------5----------------------|
C|3---2--------3---2------3--2--3---2--------3---2-------2--3--5--5--3--3--|
G|3---2--------3---2------3--2--3---2--------3---2-------2--3--5--5--3--3--|
C|3---2--------3---2------3--2--3---2--------3---2-------2--3--5--5--3--3--|

D|-------------------------------------------------------------------------------------------|
A|------4-------5-------------------------------------4-------5------------------------------|
F|------4-------5-------------------------------------4-------5------------------------------|
C|3--2----3--2----3--2--3--2--2--2--2--2--2--2--3--2----3--2----2--3--5--3--2--3--3--3--3--3-|
G|3--2----3--2----3--2--3--2--2--2--2--2--2--2--3--2----3--2----2--3--5--3--2--3--3--3--3--3-|
C|3--2----3--2----3--2--3--2--2--2--2--2--2--2--3--2----3--2----2--3--5--3--2--3--3--3--3--3-|
                              x  x  x  x  x  x                                    x  x  x  x

D|-------------------------------------------------------------------------------------------|
A|------4-------5-------------------------------------4-------5------------------------------|
F|------4-------5-------------------------------------4-------5------------------------------|
C|3--2----3--2----3--2--3--2--2--2--2--2--2--2--3--2----3--2----2--3--5--3--2--3-------------|
G|3--2----3--2----3--2--3--2--2--2--2--2--2--2--3--2----3--2----2--3--5--3--2--3-------------|
C|3--2----3--2----3--2--3--2--2--2--2--2--2--2--3--2----3--2----2--3--5--3--2--3-------------|
                              x  x  x  x  x  x  

D|-------------------------------------------------------------------------------------------|
A|------4-------5-------------------------------------4-------5------------------------------|
F|------4-------5-------------------------------------4-------5------------------------------|
C|3--2----3--2----3--2--3--2--2--2--2--2--2--2--3--2----3--2----2--3--5--3--2--3--3--3--3--3-|
G|3--2----3--2----3--2--3--2--2--2--2--2--2--2--3--2----3--2----2--3--5--3--2--3--3--3--3--3-|
C|3--2----3--2----3--2--3--2--2--2--2--2--2--2--3--2----3--2----2--3--5--3--2--3--3--3--3--3-|
                              x  x  x  x  x  x                                    x  x  x  x

D|-------------------------------------------------------------------------------------------|
A|------4-------5-------------------------------------4-------5------------------------------|
F|------4-------5-------------------------------------4-------5------------------------------|
C|3--2----3--2----3--2--3--2--2--2--2--2--2--2--3--2----3--2----2--3--5--3--2--3--3--3--3--3-|
G|3--2----3--2----3--2--3--2--2--2--2--2--2--2--3--2----3--2----2--3--5--3--2--3--3--3--3--3-|
C|3--2----3--2----3--2--3--2--2--2--2--2--2--2--3--2----3--2----2--3--5--3--2--3--3--3--3--3-|
                              x  x  x  x  x  x                                    x  x  x  x
                                
D|--------------------------|
A|--------------------------|
F|--------------------------|
C|3-------------------------|
G|3-------------------------|
C|3-------------------------|

D|---------------------------------------------------------------------------------------------------------|
A|---------------------------------------------------------------------------------------------------------|
F|---------------------------------------------------------------------------------------------------------|
C|2----2-2-2-2--2--2-2-2--2-3--3--3-3-3-3--2--0--0-15--2----2-2-2-2--2--2-2-2--2-3--3--3-3-3-3--2--5--0-15-|
G|2----2-2-2-2--2--2-2-2--2-3--3--3-3-3-3--2--0--0-15--2----2-2-2-2--2--2-2-2--2-3--3--3-3-3-3--2--5--0-15-|
C|2----2-2-2-2--2--2-2-2--2-3--3--3-3-3-3--2--0--0-15--2----2-2-2-2--2--2-2-2--2-3--3--3-3-3-3--2--5--0-15-|
       x x x       x x    x       x x x          x          x x x       x x    x       x x x          x

D|---------------------------------------------------------------------------------------------------------|
A|---------------------------------------------------------------------------------------------------------|
F|---------------------------------------------------------------------------------------------------------|
C|2----2-2-2-2--2--2-2-2--2-3--3--3-3-3-3--2--0--0-15--2----2-2-2-2--2--2-2-2--2-3--3--3-3-3-3--2--5--0-15-|
G|2----2-2-2-2--2--2-2-2--2-3--3--3-3-3-3--2--0--0-15--2----2-2-2-2--2--2-2-2--2-3--3--3-3-3-3--2--5--0-15-|
C|2----2-2-2-2--2--2-2-2--2-3--3--3-3-3-3--2--0--0-15--2----2-2-2-2--2--2-2-2--2-3--3--3-3-3-3--2--5--0-15-|
       x x x       x x    x       x x x          x          x x x       x x    x       x x x          x

D|---------------------------------------------------------------------------------------------------------|
A|---------------------------------------------------------------------------------------------------------|
F|---------------------------------------------------------------------------------------------------------|
C|2----2-2-2-2--2--2-2-2--2-3--3--3-3-3-3--2--0--0-15--2----2-2-2-2--2--2-2-2--2-3--3--3-3-3-3--2--5--0-15-|
G|2----2-2-2-2--2--2-2-2--2-3--3--3-3-3-3--2--0--0-15--2----2-2-2-2--2--2-2-2--2-3--3--3-3-3-3--2--5--0-15-|
C|2----2-2-2-2--2--2-2-2--2-3--3--3-3-3-3--2--0--0-15--2----2-2-2-2--2--2-2-2--2-3--3--3-3-3-3--2--5--0-15-|
       x x x       x x    x       x x x          x          x x x       x x    x       x x x          x

D|---------------------------------------------------------------------------------------------------------|
A|---------------------------------------------------------------------------------------------------------|
F|---------------------------------------------------------------------------------------------------------|
C|2----2-2-2-2--2--2-2-2--2-3--3--3-3-3-3--2--0--0-15--2----2-2-2-2--2--2-2-2--2-3--3--3-3-3-3--2--5--0-15-|
G|2----2-2-2-2--2--2-2-2--2-3--3--3-3-3-3--2--0--0-15--2----2-2-2-2--2--2-2-2--2-3--3--3-3-3-3--2--5--0-15-|
C|2----2-2-2-2--2--2-2-2--2-3--3--3-3-3-3--2--0--0-15--2----2-2-2-2--2--2-2-2--2-3--3--3-3-3-3--2--5--0-15-|
       x x x       x x    x       x x x          x          x x x       x x    x       x x x          x


D|-----------------------------------------------------------|
A|-----------------------------------------------------------|
F|-----------------------------------------------------------|
C|2--2-2-2-5-6-3--3-3-3--5-5-5-0--0-0-0-0-0-15--0-0-0-3-5-3--|
G|2--2-2-2-5-6-3--3-3-3--5-5-5-0--0-0-0-0-0-15--0-0-0-3-5-3--|
C|2--2-2-2-5-6-3--3-3-3--5-5-5-0--0-0-0-0-0-15--0-0-0-3-5-3--|
     x x x                        x x x x x     x x x

D|-----------------------------------------------------------|
A|-----------------------------------------------------------|
F|-----------------------------------------------------------|
C|2--2-2-2-5-6-3--3-3-6--6-6-6-0--0-0-0-0-0-17--0-0-0-3-5-3--|
G|2--2-2-2-5-6-3--3-3-6--6-6-6-0--0-0-0-0-0-17--0-0-0-3-5-3--|
C|2--2-2-2-5-6-3--3-3-6--6-6-6-0--0-0-0-0-0-17--0-0-0-3-5-3--|
     x x x                        x x x x x     x x x

D|-----------------------------------------------------------|
A|-----------------------------------------------------------|
F|-----------------------------------------------------------|
C|2--2-2-2-5-6-3--3-3-3--5-5-5-0--0-0-0-0-0-15--0-0-0-3-5-3--|
G|2--2-2-2-5-6-3--3-3-3--5-5-5-0--0-0-0-0-0-15--0-0-0-3-5-3--|
C|2--2-2-2-5-6-3--3-3-3--5-5-5-0--0-0-0-0-0-15--0-0-0-3-5-3--|
     x x x                        x x x x x     x x x

D|-----------------------------------------------------------|
A|-----------------------------------------------------------|
F|-----------------------------------------------------------|
C|2--2-2-2-5-6-3--3-3-6--6-6-6-0--0-0-0-0-0-17--0-0-0-3-5-3--|
G|2--2-2-2-5-6-3--3-3-6--6-6-6-0--0-0-0-0-0-17--0-0-0-3-5-3--|
C|2--2-2-2-5-6-3--3-3-6--6-6-6-0--0-0-0-0-0-17--0-0-0-3-5-3--|
     x x x                        x x x x x     x x x

D|---------------------------------------------------------------|
A|---------------------------------------------------------------|
F|---------------------------------------------------------------|
C|0--0-0-0-5-0-3-0-0-0-5-0-3-0-3-1-0-0-0-0-0-0-0-0-0-0-0-0-15b---|
G|0--0-0-0-5-0-3-0-0-0-5-0-3-0-3-1-0-0-0-0-0-0-0-0-0-0-0-0-15b---|
C|0--0-0-0-5-0-3-0-0-0-5-0-3-0-3-1-0-0-0-0-0-0-0-0-0-0-0-0-15b---|
     x x x   x   x x x   x   x     x   x x x x   x   x x x

D|---------------------------------------------------------------|
A|---------------------------------------------------------------|
F|---------------------------------------------------------------|
C|0--0-0-0-5-0-3-0-0-0-5-0-3-0-3-1-0-0-0-0-0-0-0-0-0-0-0-0-17b---|
G|0--0-0-0-5-0-3-0-0-0-5-0-3-0-3-1-0-0-0-0-0-0-0-0-0-0-0-0-17b---|
C|0--0-0-0-5-0-3-0-0-0-5-0-3-0-3-1-0-0-0-0-0-0-0-0-0-0-0-0-17b---|
     x x x   x   x x x   x   x     x   x x x x   x   x x x

D|---------------------------------------------------------------|
A|---------------------------------------------------------------|
F|---------------------------------------------------------------|
C|0--0-0-0-5-0-3-0-0-0-5-0-3-0-3-1-0-0-0-0-0-0-0-0-0-0-0-0-15b---|
G|0--0-0-0-5-0-3-0-0-0-5-0-3-0-3-1-0-0-0-0-0-0-0-0-0-0-0-0-15b---|
C|0--0-0-0-5-0-3-0-0-0-5-0-3-0-3-1-0-0-0-0-0-0-0-0-0-0-0-0-15b---|
     x x x   x   x x x   x   x     x   x x x x   x   x x x

D|---------------------------------------------------------------|
A|---------------------------------------------------------------|
F|---------------------------------------------------------------|
C|0--0-0-0-5-0-3-0-0-0-5-0-3-0-3-1-0-0-0-0-0-0-0-0-0-0-0-5--4--3-|
G|0--0-0-0-5-0-3-0-0-0-5-0-3-0-3-1-0-0-0-0-0-0-0-0-0-0-0-5--4--3-|
C|0--0-0-0-5-0-3-0-0-0-5-0-3-0-3-1-0-0-0-0-0-0-0-0-0-0-0-5--4--3-|
     x x x   x   x x x   x   x     x   x x x x   x   x x +  +  +

D|--------------------------|
A|--------------------------|
F|--------------------------|
C|0-------------------------|
G|0-------------------------|
C|0-------------------------|

************************************

| /   slide up
| \   slide down
| h   hammer-on
| p   pull-off
| ~   vibrato
| +   harmonic
| x   Mute note
| b   Bend
| pb  Pre-bend
| br  Bend release
| pbr Pre-bend release
| brb Bend release bend

************************************
Добавлено: 07.06.2016
Вам также может быть интересно:
Другие материалы по этой песне:
  • Аккорды и текст

Страница создана 07.06.2016
http://primanota.ru/kickball/skin-deep-chords.htm
Привет, Гость.
Предлагаем пройти революционный курс по гитаре.
Подарок от PrimaNota.Ru, забирай!