PrimaNota.ru - самый крупный в мире бесплатный архив песенных текстов, аккордов, табулатур и нот


Kickball - Replaced - таба, видео

Регистрация Запомнить меня
Войти через:  Facebook Google Twitter Vk Yandex Mail.ru

Kickball - Replaced - таба, видео

Печатать
Просмотров: 22
-------------------------------------------------------------------------------
                             Replaced - Kickball
-------------------------------------------------------------------------------
Tabbed by: Jason
E-mail:

Tuning: Recorded in drop B, played in drop C.

D|----------------------------------------------------------------------------------------------------|
A|----------------------------------------------------------------------------------------------------|
F|2-2-2----2-/--5---4---3---2-2-2----2-/--5---4---3---2-2-2----2-/--5---4---3---5---4---3---5---4---3-|
C|2-2-2----2-/--5---4---3---2-2-2----2-/--5---4---3---2-2-2----2-/--5---4---3---5---4---3---5---4---3-|
G|0-0-0----0-/--3---2---1---0-0-0----0-/--3---2---1---0-0-0----0-/--3---2---1---3---2---1---3---2---1-|
C|----------------------------------------------------------------------------------------------------|
   x x                        x x                        x x

D|----------------------------------------------------------------------------------------------------|
A|----------------------------------------------------------------------------------------------------|
F|2-2-2----2-/--5---4---3---2-2-2----2-/--5---4---3---2-2-2----2-/--5---4---3---5---4---3---5---3---5-|
C|2-2-2----2-/--5---4---3---2-2-2----2-/--5---4---3---2-2-2----2-/--5---4---3---5---4---3---5---3---5-|
G|0-0-0----0-/--3---2---1---0-0-0----0-/--3---2---1---0-0-0----0-/--3---2---1---3---2---1---3---1---3-|
C|----------------------------------------------------------------------------------------------------|
   x x                        x x                        x x

D|-------------------------------------------------------|
A|-------------------------------------------------------|
F|2------------------------------------------------------|
C|2------------------------------------------------------|
G|0------------------------------------------------------|
C|-------------------------------------------------------|

D|-------------------------------------------------------|
A|-------------------------------------------------------|
F|-------------------------------------------------------|
C|7--7-7--7-7-7-8--8-8--8-5-8-7--7-7--7-7-7-8--8-8--5--8-|
G|7--7-7--7-7-7-8--8-8--8-5-8-7--7-7--7-7-7-8--8-8--5--8-|
C|7--7-7--7-7-7-8--8-8--8-5-8-7--7-7--7-7-7-8--8-8--5--8-|
     x    x   x    x             x    x   x

D|-------------------------------------------------------|
A|-------------------------------------------------------|
F|-------------------------------------------------------|
C|7--7-7--7-7-7-8--8-8--8-5-8-7--7-7--7-7-7-8--8-8--5--8-|
G|7--7-7--7-7-7-8--8-8--8-5-8-7--7-7--7-7-7-8--8-8--5--8-|
C|7--7-7--7-7-7-8--8-8--8-5-8-7--7-7--7-7-7-8--8-8--5--8-|
     x    x   x    x             x    x   x

D|-------------------------------------------------------|
A|-------------------------------------------------------|
F|-------------------------------------------------------|
C|7--7-7--7-7-7-8--8-8--8-5-8-7--7-7--7-7-7-8--8-8-5--5--|
G|7--7-7--7-7-7-8--8-8--8-5-8-7--7-7--7-7-7-8--8-8-5--5--|
C|7--7-7--7-7-7-8--8-8--8-5-8-7--7-7--7-7-7-8--8-8-5--5--|
                                                   x  x

D|-------------------------------------------------------|
A|-------------------------------------------------------|
F|-------------------------------------------------------|
C|7--7-7--7-7-7-8--8-8--8-5-8-7--7-7--7-7-7-8--8-8--5--8-|
G|7--7-7--7-7-7-8--8-8--8-5-8-7--7-7--7-7-7-8--8-8--5--8-|
C|7--7-7--7-7-7-8--8-8--8-5-8-7--7-7--7-7-7-8--8-8--5--8-|

D|-------------------------------------------------------|
A|-------------------------------------------------------|
F|-------------------------------------------------------|
C|7--7-7--7-7-7-8--8-8--8-5-8-7--7-7--7-7-7-8--8-8--5--8-|
G|7--7-7--7-7-7-8--8-8--8-5-8-7--7-7--7-7-7-8--8-8--5--8-|
C|7--7-7--7-7-7-8--8-8--8-5-8-7--7-7--7-7-7-8--8-8--5--8-|
     x x  x x x x  x x  x x x x  x x  x x x x  x x  x  x

D|-------------------------------------------------------|
A|-------------------------------------------------------|
F|-------------------------------------------------------|
C|7--7-7--7-7-7-8--8-8--8-5-8-7--7-7--7-7-7-8--8-8--5--8-|
G|7--7-7--7-7-7-8--8-8--8-5-8-7--7-7--7-7-7-8--8-8--5--8-|
C|7--7-7--7-7-7-8--8-8--8-5-8-7--7-7--7-7-7-8--8-8--5--8-|
     x x  x x x x  x x  x x x x  x x  x x x 

D|----------------------------------------------------------------|
A|----------------------------------------------------------------|
F|----------------------------------------------------------------|
C|1-0-0-0-0-0-0-0-3-0-0-0-0-0-0-0-1-0-0-0-0-0-0-0-3-0-0-0-7-0-0-0-|
G|1-0-0-0-0-0-0-0-3-0-0-0-0-0-0-0-1-0-0-0-0-0-0-0-3-0-0-0-7-0-0-0-|
C|1-0-0-0-0-0-0-0-3-0-0-0-0-0-0-0-1-0-0-0-0-0-0-0-3-0-0-0-7-0-0-0-|
      x x x x x x     x x x x x x     x x x x x x     x x     x x

D|----------------------------------------------------------------|
A|----------------------------------------------------------------|
F|----------------------------------------------------------------|
C|1-0-0-0-0-0-0-0-3-0-0-0-0-0-0-0-1-0-0-0-0-0-0-0-3-0-0-0-7-0-----|
G|1-0-0-0-0-0-0-0-3-0-0-0-0-0-0-0-1-0-0-0-0-0-0-0-3-0-0-0-7-0-----|
C|1-0-0-0-0-0-0-0-3-0-0-0-0-0-0-0-1-0-0-0-0-0-0-0-3-0-0-0-7-0-----|
      x x x x x x     x x x x x x     x x x x x x     x x     

D|----------------------------------------------------------------|
A|----------------------------------------------------------------|
F|----------------------------------------------------------------|
C|1-0-0-0-0-0-0-0-3-0-0-0-0-0-0-0-1-0-0-0-0-0-0-0-3-0-0-0-7-0-0-0-|
G|1-0-0-0-0-0-0-0-3-0-0-0-0-0-0-0-1-0-0-0-0-0-0-0-3-0-0-0-7-0-0-0-|
C|1-0-0-0-0-0-0-0-3-0-0-0-0-0-0-0-1-0-0-0-0-0-0-0-3-0-0-0-7-0-0-0-|
      x x x x x x     x x x x x x     x x x x x x     x x     x x

D|----------------------------------------------------------------|
A|----------------------------------------------------------------|
F|----------------------------------------------------------------|
C|1-0-0-0-0-0-0-0-3-0-0-0-0-0-0-0-1-0-0-0-0-0-0-0-3-0-----7-0-----|
G|1-0-0-0-0-0-0-0-3-0-0-0-0-0-0-0-1-0-0-0-0-0-0-0-3-0-----7-0-----|
C|1-0-0-0-0-0-0-0-3-0-0-0-0-0-0-0-1-0-0-0-0-0-0-0-3-0-----7-0-----|
      x x x x x x     x x x x x x     x x x x x x    


D|----------------------------------------------------------------|
A|----------------------------------------------------------------|
F|----------------------------------------------------------------|
C|0---------------------------------------------------------------|
G|0---------------------------------------------------------------|
C|0---------------------------------------------------------------|



************************************

| /   slide up
| \   slide down
| h   hammer-on
| p   pull-off
| ~   vibrato
| +   harmonic
| x   Mute note
| b   Bend
| pb  Pre-bend
| br  Bend release
| pbr Pre-bend release
| brb Bend release bend

************************************
Добавлено: 07.06.2016
Другие материалы по этой песне:
  • Аккорды и текст

Страница создана 07.06.2016
http://primanota.ru/kickball/replaced-chords.htm
Привет, Гость.
Предлагаем пройти революционный курс по гитаре.
Подарок от PrimaNota.Ru, забирай!