PrimaNota.ru - самый крупный в мире бесплатный архив песенных текстов, аккордов, табулатур и нот


Kickball - Let Me Down - таба, видео

Регистрация Запомнить меня
Войти через:  Facebook Google Twitter Vk Yandex Mail.ru

Kickball - Let Me Down - таба, видео

Печатать
Просмотров: 23
-------------------------------------------------------------------------------
                             Let me down - Kickball
-------------------------------------------------------------------------------
Tabbed by: Jason
E-mail:

Tuning: Recorded in drop B, played in drop C. CGCFAD

D|-------------------------------------------------------|
A|-------------------------------------------------------|
F|4--4--2--3--4--4--7--6--4-4-4-----------4-4-4-7-7-7-6--|
C|4--4--2--3--4--4--7--6--4-4-4-2-2-2-3-3-4-4-4-7-7-7-6--|
G|2--2--0--1--2--2--5--4--2-2-2-2-2-2-3-3-2-2-2-5-5-5-4--|
C|------------------------------2-2-2-3-3----------------|
        x  x     x   

D|----------------------------------------------------------------|
A|----------------------------------------------------------------|
F|4-4-4-----------4-4-4-7-7-7-6-6-4-4-4-----------4-4-4-2-2-2-3-3-|
C|4-4-4-2-2-2-3-3-4-4-4-7-7-7-6-6-4-4-4-2-2-2-3-3-4-4-4-2-2-2-3-3-|
G|2-2-2-2-2-2-3-3-2-2-2-5-5-5-4-4-2-2-2-2-2-2-3-3-2-2-2-0-0-0-1-1-|
C|------2-2-2-3-3-----------------------2-2-2-3-3-----------------|

D|----------------------------------------------------------------|
A|----------------------------------------------------------------|
F|4-4-4-----------4-4-4-7-7-7-6-6-4-4-4-----------4-4-4-2-2-2-3-3-|
C|4-4-4-2-2-2-3-3-4-4-4-7-7-7-6-6-4-4-4-2-2-2-3-3-4-4-4-2-2-2-3-3-|
G|2-2-2-2-2-2-3-3-2-2-2-5-5-5-4-4-2-2-2-2-2-2-3-3-2-2-2-0-0-0-1-1-|
C|------2-2-2-3-3-----------------------2-2-2-3-3-----------------|
    x x   x x   x   x x   x x   x

D|----------------------------------------------------------------|
A|----------------------------------------------------------------|
F|4-4-4-----------4-4-4-7-7-7-6-6-4-4-4-----------4-4-4-2-2-2-3-3-|
C|4-4-4-2-2-2-3-3-4-4-4-7-7-7-6-6-4-4-4-2-2-2-3-3-4-4-4-2-2-2-3-3-|
G|2-2-2-2-2-2-3-3-2-2-2-5-5-5-4-4-2-2-2-2-2-2-3-3-2-2-2-0-0-0-1-1-|
C|------2-2-2-3-3-----------------------2-2-2-3-3-----------------|

D|----------------------------------------------------------------|
A|----------------------------------------------------------------|
F|4-4-4-----------4-4-4-7-7-7-6-6-4-4-4-----------4-4-4-2-2-2-3---|
C|4-4-4-2-2-2-3-3-4-4-4-7-7-7-6-6-4-4-4-2-2-2-3-3-4-4-4-2-2-2-3---|
G|2-2-2-2-2-2-3-3-2-2-2-5-5-5-4-4-2-2-2-2-2-2-3-3-2-2-2-0-0-0-1---|
C|------2-2-2-3-3-----------------------2-2-2-3-3-----------------|
    x x   x x   x   x x   x x   x

D|--------------------------|
A|--------------------------|
F|4-------------------------|
C|4-------------------------|
G|2-------------------------|
C|--------------------------|

D|--------------------------|
A|--------------------------|
F|2--3--4-------------------|
C|2--3--4-------------------|
G|0--1--2-------------------|
C|--------------------------|



D|--------------------------|
A|--------------------------|
F|7--7--7-7-6--6--6-6-7--6--|
C|7--7--7-7-6--6--6-6-7--6--|
G|5--5--5-5-4--4--4-4-5--4--|
C|--------------------------|
        x x       x x

D|--------------------------|
A|--------------------------|
F|4-------------------------|
C|4-------------------------|
G|2-------------------------|
C|--------------------------|

D|--------------------------|
A|--------------------------|
F|2--3--4-------------------|
C|2--3--4-------------------|
G|0--1--2-------------------|
C|--------------------------|

D|--------------------------|
A|--------------------------|
F|7--7--7-7-6--6--6-6-7--6--|
C|7--7--7-7-6--6--6-6-7--6--|
G|5--5--5-5-4--4--4-4-5--4--|
C|--------------------------|
        x x       x x

D|-----------------------------------------------------------------------------------------------------|
A|-----------------------------------------------------------------------------------------------------|
F|4----4--4-4-4--4--4--4-4------------------------2--4----4--4--4--4--4--4-4-7--7--7-7-6--6--6-6-7--6--|
C|4----4--4-4-4--4--4--4-4-3--3--3-3-2----2-2--2--2--4----4--4--4--4--4--4-4-7--7--7-7-6--6--6-6-7--6--|
G|2----2--2-2-2--2--2--2-2-3--3--3-3-2----2-2--2--0--2----2--2--2--2--2--2-2-5--5--5-5-4--4--4-4-5--4--|
C|-------------------------3--3--3-3-2----2-2--2-------------------------------------------------------|
          x x x  x     x x       x x      x x                x  x  x     x  x      x x       x x

D|-----------------------------------------------------------------------------------------------------|
A|-----------------------------------------------------------------------------------------------------|
F|4----4--4--4--4--4--4-4------------------------2--4----4--4-4-4--4--4--4-4-7--7--7-7-6--6--6-6-7--6--|
C|4----4--4--4--4--4--4-4-3--3--3-3-2----2-2--2--2--4----4--4-4-4--4--4--4-4-7--7--7-7-6--6--6-6-7--6--|
G|2----2--2--2--2--2--2-2-3--3--3-3-2----2-2--2--0--2----2--2-2-2--2--2--2-2-5--5--5-5-4--4--4-4-5--4--|
C|------------------------3--3--3-3-2----2-2--2--------------------------------------------------------|
          x  x  x     x x       x x      x x                x x x  x     x x       x x       x x       

D|--------------------------|
A|--------------------------|
F|7--6--6-6-7--6--6-6-6--7--|
C|7--6--6-6-7--6--6-6-6--7--|
G|5--4--4-4-5--4--4-4-4--5--|
C|--------------------------|
        x x       x x    

D|----------------------------------------------------------------|
A|----------------------------------------------------------------|
F|4-4-4-----------4-4-4-7-7-7-6-6-4-4-4-----------4-4-4-2-2-2-3-3-|
C|4-4-4-2-2-2-3-3-4-4-4-7-7-7-6-6-4-4-4-2-2-2-3-3-4-4-4-2-2-2-3-3-|
G|2-2-2-2-2-2-3-3-2-2-2-5-5-5-4-4-2-2-2-2-2-2-3-3-2-2-2-0-0-0-1-1-|
C|------2-2-2-3-3-----------------------2-2-2-3-3-----------------|

D|----------------------------------------------------------------|
A|----------------------------------------------------------------|
F|4-4-4-----------4-4-4-7-7-7-6-6-4-4-4-----------4-4-4-2-2-2-3-3-|
C|4-4-4-2-2-2-3-3-4-4-4-7-7-7-6-6-4-4-4-2-2-2-3-3-4-4-4-2-2-2-3-3-|
G|2-2-2-2-2-2-3-3-2-2-2-5-5-5-4-4-2-2-2-2-2-2-3-3-2-2-2-0-0-0-1-1-|
C|------2-2-2-3-3-----------------------2-2-2-3-3-----------------|

D|----------------------------------------------------------------|
A|----------------------------------------------------------------|
F|4-4-4-----------4-4-4-7-7-7-6-6-4-4-4-----------4-4-4-2-2-2-3-3-|
C|4-4-4-2-2-2-3-3-4-4-4-7-7-7-6-6-4-4-4-2-2-2-3-3-4-4-4-2-2-2-3-3-|
G|2-2-2-2-2-2-3-3-2-2-2-5-5-5-4-4-2-2-2-2-2-2-3-3-2-2-2-0-0-0-1-1-|
C|------2-2-2-3-3-----------------------2-2-2-3-3-----------------|
    x x   x x   x   x x   x x   x   x x   x x   x   x x   x x   x

D|----------------------------------------------------------------|
A|----------------------------------------------------------------|
F|4-4-4-----------4-4-4-7-7-7-6-6-4-4-4-----------4-4-4-2-2-2-3-3-|
C|4-4-4-2-2-2-3-3-4-4-4-7-7-7-6-6-4-4-4-2-2-2-3-3-4-4-4-2-2-2-3-3-|
G|2-2-2-2-2-2-3-3-2-2-2-5-5-5-4-4-2-2-2-2-2-2-3-3-2-2-2-0-0-0-1-1-|
C|------2-2-2-3-3-----------------------2-2-2-3-3-----------------|
    x x   x x   x   x x   x x   x   x x   x x   x   x x   x x   x

D|---------------------------------------------|
A|---------------------------------------------|
F|---------------------------------------------|
C|2--2-0--0-2--2-4--4-2--2-2-2-2---------------|
G|2--2-0--0-2--2-4--4-2--2-2-2-2---------------|
C|2--2-0--0-2--2-4--4-2--2-2-2-2---------------|
     x    x    x    x    x x x

D|-----------------------------------------------------|
A|-----------------------------------------------------|
F|-----------------------------------------------------|
C|2--2-0--0-2--2-4--4-2--2-2-2-2-----2-2-2-2--2-2-3--3-|
G|2--2-0--0-2--2-4--4-2--2-2-2-2-----2-2-2-2--2-2-3--3-|
C|2--2-0--0-2--2-4--4-2--2-2-2-2-----2-2-2-2--2-2-3--3-|
     x    x    x    x    x x x       x x x    x x    x

D|-----------------------------------------------------|
A|-----------------------------------------------------|
F|-----------------------------------------------------|
C|2--2-0--0-2--2-4--4-2--2-2-2-2-----2-2-2-2--2-2-3--3-|
G|2--2-0--0-2--2-4--4-2--2-2-2-2-----2-2-2-2--2-2-3--3-|
C|2--2-0--0-2--2-4--4-2--2-2-2-2-----2-2-2-2--2-2-3--3-|
     x    x    x    x    x x x       x x x    x x    x

D|-----------------------------------------------------|
A|-----------------------------------------------------|
F|-----------------------------------------------------|
C|2--2-0--0-2--2-4--4-2--2-2-2-2-----2-2-2-2--2-2-3--3-|
G|2--2-0--0-2--2-4--4-2--2-2-2-2-----2-2-2-2--2-2-3--3-|
C|2--2-0--0-2--2-4--4-2--2-2-2-2-----2-2-2-2--2-2-3--3-|
     x    x    x    x    x x x       x x x    x x    x

D|-----------------------------------------------------|
A|-----------------------------------------------------|
F|-----------------------------------------------------|
C|2--2-0--0-2--2-4--4-2--2-2-2-2-----2-2-2-3--3-3-5----|
G|2--2-0--0-2--2-4--4-2--2-2-2-2-----2-2-2-3--3-3-5----|
C|2--2-0--0-2--2-4--4-2--2-2-2-2-----2-2-2-3--3-3-5----|
     x    x    x    x    x x x       x x x    x x    

************************************

| /   slide up
| \   slide down
| h   hammer-on
| p   pull-off
| ~   vibrato
| +   harmonic
| x   Mute note
| b   Bend
| pb  Pre-bend
| br  Bend release
| pbr Pre-bend release
| brb Bend release bend

************************************
Добавлено: 07.06.2016
Другие материалы по этой песне:
  • Аккорды и текст

Страница создана 07.06.2016
http://primanota.ru/kickball/let-me-down-chords.htm
Привет, Гость.
Предлагаем пройти революционный курс по гитаре.
Подарок от PrimaNota.Ru, забирай!